Oops, an error
Loading. Please wait.

Time Tonight Tab

version 1
version 1

Whole song

Interactive

50,535 views 45 this week
1 commentread comment
1 2 3 4 5
x 18
add to favorites
launch autoscroll
font size
0
reset
how to read this tab
guitar tuner
Autoscroll
slow
fast
+/-
esc
set tempo
stop
Help us to improve Ultimate-Guitar.com Take our survey!
×
Time Tonight

By John Frusciante
From "Curtains"
 

[Verse 1]

Tabbed by Marcelo "MarceFrus" =)

marce_frusciante@hotmail.com

All guitars in standard tuning, Gtr II is piano transcribed for guitar

e||-----------------|----------------|----------------|-----------------|
B||o------4------4--|------4------2--|------4------4--|-7-5-------------|
G||-------4------4--|------4------3--|------4------4--|-----4---9-8-----|
D||-------6--(6)----|----4--------4--|------6--(6)----|-------4-----9---|
A||o----6----(6)----|--2-------4-----|----6----(6)----|---------------9-|
E||--4--------4-----|-------2--------|-4--------4-----|-0-------7-------|


  
e|----------------|---------------|----------------|-----------------|
B|------4------4--|-----4------2--|------4------4--|-----------------|
G|------4------4--|-----4------3--|------4------4--|-------1-4-3-----|
D|------6--(6)----|---4--------4--|------6--(6)----|-----2-------4---|
A|----6----(6)----|-2--------4----|----6----(6)----|---2-----2-----4-|
E|-4--------4-----|--------2------|-4--------4-----|-0---------------|


[Chorus]
  Gtr II (Piano)
e|---------------|-------4----------14-|---------------|-------4----------14-|
B|-------7-------|-----4---------12----|-------7-------|-----4---------12----|
G|-----8----8----|---4--------11-------|-----8----8----|---4--------11-------|
D|---8--------8--|-6-------------------|---8--------8--|-6-------------------|
A|-6-------------|---------14----------|-6-------------|---------14----------|
E|---------------|---------------------|---------------|---------------------|

  Gtr I
e|---------------|----------------7----|---------------|----------------7----|
B|-------7----7--|-----4----------9----|-------7----7--|-----4----------9----|
G|-----8------8--|-----4----------9----|-----8------8--|-----4----------9----|
D|---8--------8--|-----6-------9-------|---8--------8--|-----6-------9-------|
A|-6--------6----|---6------7----------|-6--------6----|---6------7----------|
E|---------------|-4-------------------|---------------|-4-------------------|


   1.                                              2.
 Gtr II (Piano)
e|----------11---------9-|-----------16-----------||----------16----------18-|
B|-----------------------|--------16------16-----o||-------17----------19----|
G|-------13---------11---|-----16-----------------||----16----------18-------|
D|----13---------11------|-18----------------18---||-14----------16----------|
A|-11----------9---------|-----------------------o||-------------------------|
E|-----------------------|------------------------||-------------------------|

 Gtr I
e|-----------------------|------------------------||-------------------------|
B|-------12---------11---|----9--------9------9--o||--------9----------11----|
G|-------13---------11---|----8--------8------8---||--------9----------11----|
D|----13-13------11-11---|----9--------9------9---||-----9--9-------11-------|
A|-11----------9---------|----7--------7------7--o||--7-----------9----------|
E|-----------------------|------------------------||-------------------------|


[Interlude]
   
e|-16-------21--19-----|---------------19-18-------|-------------23-28----|
B|-------21---------21-|--21-----21----------19----|----------24----------|
G|----20---------------|------20----20----------18-|-------25-------------|
D|-18------------------|---------------------------|----25----------------|
A|---------------------|---------------------------|-23-------------------|
E|---------------------|---------------------------|----------------------|

e|---------------------|---------------------------|----------------------|
B|----------14--12-----|---------------12-11-------|----------14----12----|
G|-------13-13--13--13-|-(13)----13----------11----|-------13-------------|
D|----13---------------|------13----13----------11-|----13----------------|
A|-11------------------|---------------------------|-11-------------------|
E|---------------------|---------------------------|----------------------|


[Bridge]
  Gtr I
e||------4---------|---------------|-----4---------|-----------------||
B||o-----5------4--|-----9---------|-----5------4--|-----9------2---o||
G||------6------4--|-----9------6--|-----6------4--|-----9------3----||
D||----6--------6--|---9-9----5-5--|---6--------6--|---9-9------4----||
A||o-4--------6----|-7------6------|-4--------6----|-7--------4-----o||
E||---------4------|---------------|--------4------|--------2--------||


e||------4---------|----------------||---------------|------------------|
B||o-----5------4--|-----9------2--o||-----4------9--|-------------11---|
G||------6------4--|-----9------3---||-----4------9--|-----8-------11---|
D||----6--------6--|---9-9------4---||-----6----9-9--|-----9----11------|
A||o-4--------6----|-7--------4----o||---6----7------|---9-9--9---------|
E||---------4------|--------2-------||-4-------------|-7----------------|


[Outro]
e||----------------|---------------|---------------|------------------||-4----*|
B||o-----4---------|-----4------2--|-----4------9--|-------------11--o||-4----*|
G||------4------1--|-----4------3--|-----4------9--|-----8-------11---||-4----*|
D||------6------2--|---4-4------4--|-----6----9-9--|-----9----11------||-6----*|
A||o---6------2-2--|-2--------4----|---6----7------|---9-9--9--------o||-6----*|
E||--4------0------|--------2------|-4-------------|-7----------------||-4----*|

You can figure out the repeats



************************************

| (n)  Ghost note
| *    repeats

************************************
Suggest correction
comments
print report bad tab
1 comment total.
0 reply
Mr E 168 May 25, 2008 09:35 PM

Amazing tab. Thanks so much!

guest
You may want to rate the tab now too:
select rating
Wanna post a correction for this tab? Suggest correction