Oops, an error
Loading. Please wait.

Time Tonight Chords

version 2
version 2

Whole song

Interactive

26,499 views 78 this week
2 commentsread comments
1 2 3 4 5
x 14
add to favorites
launch autoscroll
font size
0
reset
transpose
0
reset
simplify chords
display chords
guitar tuner
Autoscroll
slow
fast
+/-
esc
set tempo
stop
Help us to improve Ultimate-Guitar.com Take our survey!
×
[Chords]
F   (1 3 3 2 1 1) or (x 8 10 10 10 8)
C   (x 3 2 0 1 0) or (x 3 5 5 5 3)
Em  (0 2 2 0 0 0) or (x 7 9 9 8 7)
E7  (0 2 2 1 3 0) or (x 7 9 7 9 7)
Dm  (x 0 0 2 3 1) or (x 5 7 7 6 5)
Am  (x 0 2 2 1 0) or (5 7 7 5 5 5)
G   (3 2 0 0 0or3 3) or (3 5 5 4 3 3)

[Fill 1]
e|-3-1-----1-0-----|
B|-----1------1----|
G|-------2------0--|
D|-----------------|
A|---------3-------|
E|-1---------------|

[Fill 2]
e|-----------------|
B|---------1-0-----|
G|-------2-----0---|
D|-----3---------0-|
A|---3-----3-------|
E|-1---------------|

[Verse 1]
     Am
For changing lines
      C      G      Am

[Fill 1]
e|-3-1-----1-0-----|
B|-----1------1----|
G|-------2------0--|
D|-----------------|
A|---------3-------|
E|-1---------------|

I've got no time tonight
Am                  C       G         Am

[Fill 2]
e|-----------------|
B|---------1-0-----|
G|-------2-----0---|
D|-----3---------0-|
A|---3-----3-------|
E|-1---------------|

In these times the wind surpasses the tide
Em       Am        F       C
when the wake ups hard to find
       Am       Dm       Am G F
dreams make up for your life

[Verse 2]
      Am             C     G        Am

[Fill 1]
e|-3-1-----1-0-----|
B|-----1------1----|
G|-------2------0--|
D|-----------------|
A|---------3-------|
E|-1---------------|

This crazy shine it never lets you die
 Am
Growing up
    C       G      Am

[Fill 2]
e|-----------------|
B|---------1-0-----|
G|-------2-----0---|
D|-----3---------0-|
A|---3-----3-------|
E|-1---------------|

We become what we want
  Em       Am        F       C
Again the moon rises up too high
    Am        Dm        Am G F
And we don't need the sky

[Bridge]
Dm             Am                 F           E7
Wonder what it is that makes the world turn slower
Dm             Am                F       G
wonder what it is that makes me feel so mad
Dm             Am            F       E7
everyone that talks to me I so wish wouldn't
Dm               Am           F       G
I wouldn't even care exept I feel so baa-
Dm   Am     F       G   Am F C G
 aad     I feel so baaaaaaaaaaaad

[Instrumental]
Am F C G

[Outro]
Am  F      C     G          Am F C G
why   is there noone in my life
Am  F   C         G      Am F C G
time  there's no time tonight
Am  F   C          G          Am F C G
Wide  there's no room to see wide
Am  F   C         G      Am F C G
Time  There's no time tonight
Am F C G (4x)
Suggest correction
comments
print report bad tab
2 comments total.
0 reply
schabek 10 Mar 31, 2009 10:45 AM

Great tab , 5 stars ;-)

0 reply
alexander.paech 21 Jan 09, 2014 02:30 PM

Awesome Tab

guest
You may want to rate the tab now too:
select rating
Wanna post a correction for this tab? Suggest correction