Oops, an error
Loading. Please wait.

Tiny Dancer tab

version 2
version 2

Whole song

Interactive

81,850 views 168 this week
3 commentsread comments
1 2 3 4 5
x 23
add to favorites
×
Save as Personal and add changes to this tab that will be seen only by you. Learn more ›
×
You can save this tab as Personal to edit and correct it or add notes. All changes will be seen only by you. Learn more »
launch autoscroll
font size
0
reset
how to read this tab
guitar tuner
edit
Autoscroll
slow
fast
+/-
esc
set tempo
stop
Author
Difficulty
Tiny Dancer from Elton John as played by John Frusciante at Pinkpop1990

Hold me closer tiny dancer
e|-----------|-----------------|
B|-6----5----|----6------------|
G|------5----|----7------------|
D|-7----5----|----7------------|
A|-8----7----|-5--5--5-5--5-7--|
E|-----------|-----------------|

I count the headlights on the highway
e|-------------|-----------------|
B|---6----5----|-3-----3-----3---|
G|--------5----|-2-----2-----2---|
D|---7----5----|-0---x-0---x-0---|
A|-8-8--7------|-----------------|
E|-------------|-----------------|

Lay me down in sheets of linen
e|-8-----------|----5------------|
B|-6---6-5---5-|----6------------|
G|-0---0-5---5-|----7------------|
D|-7---7-5---5-|----7------------|
A|-8---8-7---7-|-5--5--5-5--5-7--|
E|-------------|-----------------|

You had a busy day today          whoa
e|---8---------|-----------------|-----------------|
B|---6---------|-3-----3-----3---|-3-----3-----3---|
G|---0---------|-2-----2-----2---|-2-----2-----2---|
D|---7---------|-0---x-0---x-0---|-0---x-0---x-0---|
A|-8-8--7------|-----------------|-----------------|
E|-------------|-----------------|-----------------|

************************************

| x  Dead note

************************************

            
            
Suggest correction
Creating personal tab
Creating personal tab
You can edit any tab online and save it as your Personal.

You can edit, replace or remove any tab part or add personal notes – all changes will be seen only by you.

Personal tabs can be accessed anytime from any device, even offline.
Learn more »
comments
print report bad tab
3 comments total.
0 reply
jeordie1 10 Dec 18, 2006 07:37 PM

good stuff, sounds awesome

0 reply
Karol1701 213 Sep 15, 2007 05:08 AM

great tab... :)

0 reply
ethanhausler 112 Jun 22, 2010 06:16 PM

great tab thanks

guest
You may want to rate the tab now too:
select rating
Wanna post a correction for this tab? Suggest correction