Oops, an error
Loading. Please wait.

Give Me 250Ml tab

157 views 6 this week
no commentswrite comment
1 2 3 4 5
3 more votes to show rating
add to favorites
×
Save as Personal and add changes to this tab that will be seen only by you. Learn more ›
×
You can save this tab as Personal to edit and correct it or add notes. All changes will be seen only by you. Learn more »
launch autoscroll
font size
0
reset
how to read this tab
guitar tuner
edit
Autoscroll
slow
fast
+/-
esc
set tempo
stop
About this tab version
You will need to listen to the song for the timings but this tab should get you 98% of the way there once you tuned your guitar down. Was this info helpful? Yes No
Listen to the song here: https://youtu.be/QkJS7hfPKI4
This song is played on a guitar tuned to C#.  That's down a step and a half to:
C# G# E B F# C#

[Intro]
C#|--------7-----3--3-----5--5-----7-|-------7-----------3--3--5------------|--|
F#|--------9-----5--5-----7--7-----9-|-------9-----3--3--5--5--7------------|--|
B |--------9-----5--5-----7--7-----9-|-------9-----3--3--5--5--7------------|--|
E |--------9-----5--5-----7--7-----9-|-------9-----3--3--5--5--7------------|--|
G#|--------7-----3--3-----5--5-----7-|-------7-----------3--3--5------------|--|
C#|--0--0----------------------------|-0--0---------------------------------|--|  x4

Then play this:
C#|--------7-----------7-----------7-----------7--|-------------------------|--|
F#|--------9-----------9-----------9-----------9--|-------------------------|--|
B |--------9-----------9-----------9-----------9--|---7h9p7-----7-----------|--|
E |--------9-----------9-----------9-----------9--|----------9-----9p7------|--|
G#|--------7-----------7-----------7-----------7--|---------------------10--|--|
C#|--0--0--------0--0--------0--0--------0--0-----|-------------------------|--|

[Verse]
Repeat this through the verse (note the descending hammer ons at the end of the part):
C#|--------7----------------------|--------7--------------------------------|--|
F#|--------9----------------------|--------9--------------------------------|--|
B |--------9---7h9p7---7----------|--------9---7h9p7----7-------------------|--|
E |--------9---------9---9p7------|--------9---------9----9p7---------------|--|
G#|--------7-----------------10---|--------7-------------------10-----------|--|
C#|--0--0-------------------------|-0--0------------------------------------|--|


C#|--------7-------------------------|-------7------------------------------|--|
F#|--------9-------------------------|-------9------------------------------|--|
B |--------9---7h9p7----7------------|-------9---7h9------------------------|--|
E |--------9----------9----9p7-------|-------9--------7h9--------7h9--------|--|
G#|--------7--------------------10---|-------7-------------7h10-------------|--|
C#|--0--0----------------------------|-0--0---------------------------------|--|  x4

[Chorus]
The chorus (the oooh oooooh ooh bit) is just a repeat of the intro but shorter:
C#|--------7-----3--3-----5--5-----7-|-------7-----------3--3--5------------|--|
F#|--------9-----5--5-----7--7-----9-|-------9-----3--3--5--5--7------------|--|
B |--------9-----5--5-----7--7-----9-|-------9-----3--3--5--5--7------------|--|
E |--------9-----5--5-----7--7-----9-|-------9-----3--3--5--5--7------------|--|
G#|--------7-----3--3-----5--5-----7-|-------7-----------3--3--5------------|--|
C#|--0--0----------------------------|-0--0---------------------------------|--|  x4

Then play this:
C#|--------7-----------7-----------7-----------7-|--------------------------|--|
F#|--------9-----------9-----------9-----------9-|--------------------------|--|
B |--------9-----------9-----------9-----------9-|----7h9p7-----7-----------|--|
E |--------9-----------9-----------9-----------9-|-----------9-----9p7------|--|
G#|--------7-----------7-----------7-----------7-|----------------------10--|--|
C#|--0--0--------0--0--------0--0--------0--0----|--------------------------|--|

*************

|h hammer on
|p pull off

*************

I was driving
Just a masking
A mile out oh
Till I’m gone

Like a cool breeze
On the riverside
And her addiction was
a friend of mine

She's got hard rhythm
So much rhythm
and I’ll just ride it out
maybe I’ll choke her out

Always standing
always waiting
are there infinite answers
on the other side of yours

ooh ooh ooh ooooh ooh oho

Precision
Like the pen
She was made
Just to win

All the other ones
Fucking born to lose baby
Transitions and names
Mean nothing so choose

Simplify me
Dont deny me
The river bourbon
Kentucky confide in me

oooooo ooooo oooo ooooooo oooooooh
oooo oooo  ooooooo oooo   oooooooo
Suggest correction
Creating personal tab
Creating personal tab
You can edit any tab online and save it as your Personal.

You can edit, replace or remove any tab part or add personal notes – all changes will be seen only by you.

Personal tabs can be accessed anytime from any device, even offline.
Learn more »
Give kudos to tab author, rate the tab!
1 2 3 4 5
comments
print report bad tab
guest
You may want to rate the tab now too:
select rating
Wanna post a correction for this tab? Suggest correction