Oops, an error
Loading. Please wait.

Satisfied Tab

546 views 1 this week
no commentswrite comment
1 2 3 4 5
excellent!
x 1
add to favorites
launch autoscroll
font size
0
reset
how to read this tab
guitar tuner
Tab Pro tools
  • play this tab
  • loop segment
  • change instrument
  • show fretboard
  • metronome
Autoscroll
slow
fast
+/-
esc
set tempo
stop
Contributor
Difficulty
intermediate
-------------------------------------------------------------------------------
                             SATISFIED - John Hiatt
-------------------------------------------------------------------------------
Tabbed by: cflat
Email: cflat@earthlink.net

Tuning: e,b,g,d,a,e


Standard Tuning w/ Capo on 2nd Fret and each string needs to tune up around 1/4 note to 
the recording (at least with the version of the song I have)

Downbeats are counted in 1/8 notes at the top of each measure, pay attention to the 
in time for each bar.

The Intro is basically the last bar of the main phrase

Tempo = 86 1/4 note, roughly

INTRO

C 8/8
 1       2       3       4       5       6       7       8       |
|----------------------------------------------------------------|
|1---------------------------1---------------1----------------1--|
|--------0-----------0---------------0---------------0-----------|
|--------2---------------2---------------2---------------2-------|
|3-------------------------------3-------------------------------|
|----------------3-------------------------------3---------------|


C 8/8
 1       2       3       4       5       6       7       8       |
|-------------------------------------0----------0---------------|
|---------------------------------------------3-------3------1---|
|----0--------0------------------0-------------------------------|
|--------2---------------2---------------2---------------2-------|
|3-------------------------------3---------------3---------------|
|----------------3-----------------------------------------------|


Main Phrase:

x2
F 6/8
C 8/8
G 12/8
C 8/8

Repeats the same pattern...over and over again with some variations

F 6/8
 1       2       3       4       5       6       |
|----------------------------0-------------------|
|1)------------------3---------------3-------1---|
|--------2----------------2------2-------2-p-0---|
|3---------------3-------------------------------|
|------------------------------------------------|
|------------------------------------------------|

C 8/8
 1       2       3       4       5       6       7       8       |
|----------------------------------------------------------------|
|1)------1-----------------------1------------3------1-----------|
|0)--------------0-------2------------2--------------------------|
|--------------------------------------------------------2--p0---|
|3-------------------------------3---------------3---------------|
|----------------3-----------------------------------------------|

G 12/8
 1       2       3       4       5       6       7       8
|----------------------------------------------------------------|
|----------------------------------------------------------------|
|3-h-4-------0-------------------3-h-4-------0---------------0---|
|--------0---------------0---------------0---------------0-------|
|----------------------------------------------------------------|
|3---------------3---------------3---------------3---------------|

cont'

 9       10      11      12       |
|-----3----------3-------3/5------|
|------------0--------------------|
|---------0------0----------------|
|---------------------------------|
|---------------------------------|
|3--------------------------------|


C 8/8
 1       2       3       4       5       6       7       8       |
|0-----------------------------------3-----------3-p-0-----------|
|----------------------------1---------------1-----------3--p--1-|
|--------------------0-------------------0-----------------------|
|--------2---------------2---------------------------------------|
|3-------------------------------3---------------3---------------|
|----------------3-----------------------------------------------|

F 6/8

 1       2       3       4       5       6       |
|0---------------------------0-------------------|
|--------------------3---------------3--------1--|
|--------2---------------2---------------2-------|
|3---------------3---------------3---------------|
|------------------------------------------------|
|------------------------------------------------|

C 8/8
 1       2       3       4       5       6       7       8       |
|----------------------------------------------------------------|
|1)------1-----------------------1------------3------1-----------|
|----------------0-------2------------0--------------------------|
|----------------------------------------2----------------2--p0--|
|3-------------------------------3---------------3---------------|
|----------------3-----------------------------------------------|

G 12/8
 1       2       3       4       5       6       7       8
|----------------------------------------------------------------|
|----------------------------------------------------------------|
|3-h-4-------0-------------------3-h-4-------0---------------0---|
|--------0---------------0---------------0---------------0-------|
|----------------------------------------------------------------|
|3---------------3---------------3---------------3---------------|

cont'

 9       10      11      12       |
|-----1------0--------------------|
|----------------0----3-------0---|
|----------------0----------------|
|---------0---------------0-------|
|---------------------------------|
|3---------------3----------------|

C 8/8
 1       2       3       4       5       6       7       8       |
|----------------------------------------0-------0---------------|
|--------1-------------------1-----------------------3-----------|
|--------------------0---------------0---------------------------|
|------------------------2---------------2-------2---0-----------|
|3-------------------------------3-------------------------------|
|----------------3-----------------------------------------------|
comments
We did not receive enough feedback on this tab! Please rate:
print report bad tab
1 2 3 4 5
I want to post or [tab]
guest
You may want to rate the tab now too:
select rating
Please do not post tabs as comments. Select "correction" instead!