Oops, an error
Loading. Please wait.

Capital tab

229 views 3 this week
1 commentread comment
1 2 3 4 5
3 more votes to show rating
add to favorites
×
Save as Personal and add changes to this tab that will be seen only by you. Learn more ›
×
You can save this tab as Personal to edit and correct it or add notes. All changes will be seen only by you. Learn more »
launch autoscroll
font size
0
reset
how to read this tab
guitar tuner
edit
Autoscroll
slow
fast
+/-
esc
set tempo
stop
Capo 4th fret


[Intro]

    C           Em7         Am          G           F                       F
e|--------------------------------------------------------------------------------------------------|
B|--------------------------------------------------------------------------------------------------|
G|-----0-----0-----0-----0-----0-----0-----0-----0-----0h2---2-----------------0h2---2--------------|
D|-----------------------------------------------------3-----3-----------------3-----3--------------|x2
A|-----------------------------------------------------3-----3-----3-----3-----3-----3-----3-----3--|
E|--8-----8-----7-----7-----5-----5-----3-----3-----1-----1-----1-----1-----1-----1-----1-----1-----|


[Verse 1]

    C           Em7         Am          G           F                       F
e|--------------------------------------------------------------------------------------------------|
B|--------------------------------------------------------------------------------------------------|
G|-----0-----0-----0-----0-----0-----0-----0-----0-----0h2---2-----------------0h2---2--------------|
D|-----------------------------------------------------3-----3-----------------3-----3--------------|
A|-----------------------------------------------------3-----3-----3-----3-----3-----3-----3-----3--|
E|--8-----8-----7-----7-----5-----5-----3-----3-----1-----1-----1-----1-----1-----1-----1-----1-----|
          So  when  they  wonder     where the money went

    C           Em7         Am          G           F                       F
e|--------------------------------------------------------------------------------------------------|
B|--------------------------------------------------------------------------------------------------|
G|-----0-----0-----0-----0-----0-----0-----0-----0-----0h2---2-----------------0h2---2--------------|
D|-----------------------------------------------------3-----3-----------------3-----3--------------|
A|-----------------------------------------------------3-----3-----3-----3-----3-----3-----3-----3--|
E|--8-----8-----7-----7-----5-----5-----3-----3-----1-----1-----1-----1-----1-----1-----1-----1-----|
          And  we  can't  swim  here    anymore

    C           Em7         Am          G           F                       F
e|--------------------------------------------------------------------------------------------------|
B|--------------------------------------------------------------------------------------------------|
G|-----0-----0-----0-----0-----0-----0-----0-----0-----0h2---2-----------------0h2---2--------------|
D|-----------------------------------------------------3-----3-----------------3-----3--------------|
A|-----------------------------------------------------3-----3-----3-----3-----3-----3-----3-----3--|
E|--8-----8-----7-----7-----5-----5-----3-----3-----1-----1-----1-----1-----1-----1-----1-----1-----|
          And  bankers    warble       algorithmically

    C           Em7         Am          G           F                       F
e|--------------------------------------------------------------------------------------------------|
B|--------------------------------------------------------------------------------------------------|
G|-----0-----0-----0-----0-----0-----0-----0-----0-----0h2---2-----------------0h2---2--------------|
D|-----------------------------------------------------3-----3-----------------3-----3--------------|
A|-----------------------------------------------------3-----3-----3-----3-----3-----3-----3-----3--|
E|--8-----8-----7-----7-----5-----5-----3-----3-----1-----1-----1-----1-----1-----1-----1-----1-----|
From the shore


[Verse 2]

    C           Em7         Am          G           F                       F
e|--------------------------------------------------------------------------------------------------|
B|--------------------------------------------------------------------------------------------------|
G|-----0-----0-----0-----0-----0-----0-----0-----0-----0h2---2-----------------0h2---2--------------|
D|-----------------------------------------------------3-----3-----------------3-----3--------------|
A|-----------------------------------------------------3-----3-----3-----3-----3-----3-----3-----3--|
E|--8-----8-----7-----7-----5-----5-----3-----3-----1-----1-----1-----1-----1-----1-----1-----1-----|
          The stations    pump   the   new       austerity

    C           Em7         Am          G           F                       F
e|--------------------------------------------------------------------------------------------------|
B|--------------------------------------------------------------------------------------------------|
G|-----0-----0-----0-----0-----0-----0-----0-----0-----0h2---2-----------------0h2---2--------------|
D|-----------------------------------------------------3-----3-----------------3-----3--------------|
A|-----------------------------------------------------3-----3-----3-----3-----3-----3-----3-----3--|
E|--8-----8-----7-----7-----5-----5-----3-----3-----1-----1-----1-----1-----1-----1-----1-----1-----|
          The  Ogal---------lala        Aquifer

    C           Em7         Am          G           F                       F
e|--------------------------------------------------------------------------------------------------|
B|--------------------------------------------------------------------------------------------------|
G|-----0-----0-----0-----0-----0-----0-----0-----0-----0h2---2-----------------0h2---2--------------|
D|-----------------------------------------------------3-----3-----------------3-----3--------------|
A|-----------------------------------------------------3-----3-----3-----3-----3-----3-----3-----3--|
E|--8-----8-----7-----7-----5-----5-----3-----3-----1-----1-----1-----1-----1-----1-----1-----1-----|
          And crackling    Cali---------fornia  reservoirs

    C           Em7         Am          G           F                       F
e|--------------------------------------------------------------------------------------------------|
B|--------------------------------------------------------------------------------------------------|
G|-----0-----0-----0-----0-----0-----0-----0-----0-----0h2---2-----------------0h2---2--------------|
D|-----------------------------------------------------3-----3-----------------3-----3--------------|
A|-----------------------------------------------------3-----3-----3-----3-----3-----3-----3-----3--|
E|--8-----8-----7-----7-----5-----5-----3-----3-----1-----1-----1-----1-----1-----1-----1-----1-----|
Making sure


[Bridge]

    G                       Am                      C                       F
e|--------------------------------------------------------------------------------------------------|
B|--------------------------------------------------------------------------------------------------|
G|-----4-----4-----4-----4-----5-----5-----5-----5-----9-----9-----9-----9-----10----9-----7--------|
D|--------------------------------------------------------------------------------------------------|
A|--------------------------------------------------------------------------8-----8-----8-----8-----|
E|--3-----3-----3-----3-----5-----5-----5-----5-----8-----8-----8-----8-----------------------------|
          Priced  out  of  that  old  neighbourhood                     for good

    F
e|------------------------------------------------|
B|------------------------------------------------|
G|----2-----2-----2-----2-----2-----2-----0----0--|
D|----3-----3-----3-----3-----3-----3-----3----3--|
A|------------------------------------------------|
E|--1----1-----1-----1-----1-----1-----1-----1----|

    C           Em7         Am          G           F                       F
e|--------------------------------------------------------------------------------------------------|
B|--------------------------------------------------------------------------------------------------|
G|-----0-----0-----0-----0-----0-----0-----0-----0-----0h2---2-----------------0h2---2--------------|
D|-----------------------------------------------------3-----3-----------------3-----3--------------|x2
A|-----------------------------------------------------3-----3-----3-----3-----3-----3-----3-----3--|
E|--8-----8-----7-----7-----5-----5-----3-----3-----1-----1-----1-----1-----1-----1-----1-----1-----|


[Verse 3]

    C           Em7         Am          G           F                       F
e|--------------------------------------------------------------------------------------------------|
B|--------------------------------------------------------------------------------------------------|
G|-----0-----0-----0-----0-----0-----0-----0-----0-----0h2---2-----------------0h2---2--------------|
D|-----------------------------------------------------3-----3-----------------3-----3--------------|
A|-----------------------------------------------------3-----3-----3-----3-----3-----3-----3-----3--|
E|--8-----8-----7-----7-----5-----5-----3-----3-----1-----1-----1-----1-----1-----1-----1-----1-----|
          The  payday      lonely      pray in parking lots

    C           Em7         Am          G           F                       F
e|--------------------------------------------------------------------------------------------------|
B|--------------------------------------------------------------------------------------------------|
G|-----0-----0-----0-----0-----0-----0-----0-----0-----0h2---2-----------------0h2---2--------------|
D|-----------------------------------------------------3-----3-----------------3-----3--------------|
A|-----------------------------------------------------3-----3-----3-----3-----3-----3-----3-----3--|
E|--8-----8-----7-----7-----5-----5-----3-----3-----1-----1-----1-----1-----1-----1-----1-----1-----|
          A  one bar       Wi-Fi       kind of town

    C           Em7         Am          G           F                       F
e|--------------------------------------------------------------------------------------------------|
B|--------------------------------------------------------------------------------------------------|
G|-----0-----0-----0-----0-----0-----0-----0-----0-----0h2---2-----------------0h2---2--------------|
D|-----------------------------------------------------3-----3-----------------3-----3--------------|
A|-----------------------------------------------------3-----3-----3-----3-----3-----3-----3-----3--|
E|--8-----8-----7-----7-----5-----5-----3-----3-----1-----1-----1-----1-----1-----1-----1-----1-----|
          The  pilot      flares      oppose another night

    C           Em7         Am          G           F                       F
e|--------------------------------------------------------------------------------------------------|
B|--------------------------------------------------------------------------------------------------|
G|-----0-----0-----0-----0-----0-----0-----0-----0-----0h2---2-----------------0h2---2--------------|
D|-----------------------------------------------------3-----3-----------------3-----3--------------|
A|-----------------------------------------------------3-----3-----3-----3-----3-----3-----3-----3--|
E|--8-----8-----7-----7-----5-----5-----3-----3-----1-----1-----1-----1-----1-----1-----1-----1-----|
Coming down,                                                                              coming down


[Outro]

    G                       Am                      C                       F
e|--------------------------------------------------------------------------------------------------|
B|--------------------------------------------------------------------------------------------------|
G|-----4-----4-----4-----4-----5-----5-----5-----5-----9-----9-----9-----9-----10----9-----7--------|
D|--------------------------------------------------------------------------------------------------|
A|--------------------------------------------------------------------------8-----8-----8-----8-----|
E|--3-----3-----3-----3-----5-----5-----5-----5-----8-----8-----8-----8-----------------------------|

    F
e|------------------------------------------------|
B|------------------------------------------------|
G|----2-----2-----2-----2-----2-----2-----0----0--|
D|----3-----3-----3-----3-----3-----3-----3----3--|
A|------------------------------------------------|
E|--1----1-----1-----1-----1-----1-----1-----1----|

    C           Em7         Am          G           F                       F
e|--------------------------------------------------------------------------------------------------|
B|--------------------------------------------------------------------------------------------------|
G|-----0-----0-----0-----0-----0-----0-----0-----0-----0h2---2-----------------0h2---2--------------|
D|-----------------------------------------------------3-----3-----------------3-----3--------------|
A|-----------------------------------------------------3-----3-----3-----3-----3-----3-----3-----3--|
E|--8-----8-----7-----7-----5-----5-----3-----3-----1-----1-----1-----1-----1-----1-----1-----1-----|

End with C


            
            
Suggest correction
Creating personal tab
Creating personal tab
You can edit any tab online and save it as your Personal.

You can edit, replace or remove any tab part or add personal notes – all changes will be seen only by you.

Personal tabs can be accessed anytime from any device, even offline.
Learn more »
Give kudos to tab author, rate the tab!
1 2 3 4 5
comments
print report bad tab
1 comment total.
0 reply
dbzrkyyh 15 Feb 04, 2017 01:57 AM

Thanks! looks good.

guest
You may want to rate the tab now too:
select rating
Wanna post a correction for this tab? Suggest correction