Oops, an error
Loading. Please wait.

Stop Error Tab

872 views 1 this week
no commentswrite comment
1 2 3 4 5
please rate
add to favorites
launch autoscroll
font size
0
reset
how to read this tab
guitar tuner
Autoscroll
slow
fast
+/-
esc
set tempo
stop
Help us to improve Ultimate-Guitar.com Take our survey!
×
Author
-------------------------------------------------------------------------------
                        Stop Error – John K. Samson
-------------------------------------------------------------------------------
Tabbed by: Neil Wicker
Email: wicker101@hotmail.co.uk

Tuning: standard 

   
Intro:

    C                 G
e|---------------------------------------------------------------------------|
B|-----1-----1-----1-----3-----3-----3-----3-----3-----3-----3-----3-----3---|
G|-----0-----0-----0-----0-----0-----0-----0-----0-----0-----0-----0-----0---|
D|---------------------------------------------------------------------------|
A|--3-----2-----0------------------------------------------------------------|
E|--------------------3-----2-----2-----2-----2-----3-----3-----3-----3------|


Verse 1:
    C                 G
e|--------------------------------------------------|
B|-----1-----1-----1-----3-----3-----3-----3-----3--|
G|-----0-----0-----0-----0-----0-----0-----0-----0--|
D|--------------------------------------------------|
A|--3-----2-----0-----------------------------------|
E|--------------------3-----2-----2-----3-----3-----|

    C                 G
e|--------------------------------------------------|
B|-----1-----1-----1-----3-----3-----3-----3-----3--|
G|-----0-----0-----0-----0-----0-----0-----0-----0--|
D|--------------------------------------------------|    x2
A|--3-----2-----0-----2-----------------------------|
E|--------------------------3-----3-----3-----3-----|

my monitor is frozen 
in late four-something sun
that cuts through icy patterns
another day's begun

Chorus 1:

   G/F#                     G (355433)             G/F#
e|-----------------------------3-----3-----3-----3---------------------------|
B|-----3-----3-----3-----3-----3-----3-----3-----3-----3-----3-----3-----3---|
G|-----0-----0-----0-----0-----------------------------0-----0-----0-----0---|
D|---------------------------------------------------------------------------|
A|--------------------------5-----5-----5-----5------------------------------|
E|--2-----2-----2-----2-----------------------------2-----2-----2-----2------|

    A(577655)                G (355433)              G/F#        G
e|-----5-----5-----5------5-----3-----3-----3-----3--------------------------|
B|-----5-----5-----5------5-----3-----3-----3-----3-----3-----3-----3-----3--|
G|------------------------------------------------------0-----0-----0-----0--|
D|---------------------------------------------------------------------------|
A|--7-----7-----7------7-----5-----5-----5-----5-----------------------------|
E|---------------------------------------------------2-----2-----3-----3-----|

    G/F#       G          Gsus4   Cadd9(?)
e|-----------------------------3-----2-----2-----2-----2-----2-----2-----2---|
B|-----3-----3-----3-----3-----3-----3-----3-----3-----3-----3-----3-----3---|
G|-----0-----0-----0-----0---------------------------------------------------|
D|---------------------------------------------------------------------------|
A|--------------------------3-----3-----3-----3-----3----0h3-----3---0h3-----|
E|--2-----2-----3-----3------------------------------------------------------|

e|-----2-----2----|
B|-----3-----3----|
G|----------------|
D|----------------|
A|--3-----3-------|
E|----------------|



recalling all my losses
while trying to ignore
the theme that keeps repeating
from Call of Duty 4

Verse 2: (same as verse 1)

I tap-tap off the volume
and stare out at the road
where cars and snow ploughs scroll by
a broken line of code

Chorus 2: (same as chorus 1) 

from some embedded program
that executes our town
the river and the co-op
this house that's falling down

Verse 3: (same as verse 1 & 2)

so tape over my window
with dark green garbage bags
enclose my name in brackets
make html tags


ending:
   C                 G
e|-----------------------------------------------------------------|
B|-----1-----1-----1-----3-----3-----3-----3-----3-----3-----3-----|
G|-----0-----0-----0-----0-----0-----0-----0-----0-----0-----0-----|
D|-----------------------------------------------------------------|
A|--3-----2-----0--------------------------------------------------|
E|--------------------3-----2-----2-----2-----2-----3-----3-----3--|


************************************

| /   slide up
| \   slide down
| h   hammer-on
| p   pull-off
| ~   vibrato
| +   harmonic
| x   Mute note
| b   Bend
| pb  Pre-bend
| br  Bend release
| pbr Pre-bend release
| brb Bend release bend

************************************
Suggest correction
Give kudos to tab author, rate the tab!
1 2 3 4 5
comments
print report bad tab
guest
You may want to rate the tab now too:
select rating
Please do not post tabs as comments. Select "correction" instead!