Oops, an error
Loading. Please wait.

The Last And tab

28 views 1 this week
no commentswrite comment
1 2 3 4 5
2 more votes to show rating
add to favorites
×
Save as Personal and add changes to this tab that will be seen only by you. Learn more ›
×
You can save this tab as Personal to edit and correct it or add notes. All changes will be seen only by you. Learn more »
launch autoscroll
font size
0
reset
how to read this tab
guitar tuner
edit
Autoscroll
slow
fast
+/-
esc
set tempo
stop
Author
Difficulty
[Verse 1]

      B                   B/E                      C#m9                B
e|--------------------------------------------|------------------------------------------------|
B|--------------------------------------------|------------------------------------------------|
G|----8----8----8----8----8----8----8----8----|----8----8----8----8----8----8----8----8--------|
D|----9----9----9----9----9----9----9----9----|----9----9----9----9----9----9----9----9--------|x2
A|----9----9----9----9----9----9----9----9----|----7----7----7----7----9----9----9----9--------|
E|----7----7----7----7----0----0----0----0----|----9----9----9----9----7----7----7----7--------|

B                     B/E                   C#m9                         B
  So I'm the first one   in again, with the quiet and the window growing snow
B                        B/E                       C#m9                        B
  When I hear the furnace   rouse itself, from its slumber, somehow suddenly I know


[Chorus 1]

      E/G#      F#/A#     B        D#m7  C#m7  E         F#/A#               B    
e|--------------------------------|------------------------------------------------------------|
B|--------------------------------|------------------------------------------------------------|
G|----4----4----4----4----4----4--|------------1----1------------------------8----8----8----8--|
D|----6----6----4----4----4----4--|--4----2----2----2----8----8----8----8----9----9----9----9--|
A|----7----7----7----7----6----6--|--6----4----2----2----9----9----9----9----9----9----9----9--|
E|----4----4----6----6----7----7--|--0----0----0----0----6----6----6----6----7----7----7----7--|

      E/G#            F#/A#               B            
As my eye stops on one     curled up in my lesson plan
D#m7  C#m7  E          F#/A#               B    
              That I'm just your... little ampersand


[Verse 2]

      B                   B/E                      C#m9                B
e|--------------------------------------------|------------------------------------------------|
B|--------------------------------------------|------------------------------------------------|
G|----8----8----8----8----8----8----8----8----|----8----8----8----8----8----8----8----8--------|
D|----9----9----9----9----9----9----9----9----|----9----9----9----9----9----9----9----9--------|x2
A|----9----9----9----9----9----9----9----9----|----7----7----7----7----9----9----9----9--------|
E|----7----7----7----7----0----0----0----0----|----9----9----9----9----7----7----7----7--------|

B                                  B/E              C#m9                            B
  When your voice springs from the intercom, with announcements and reminders and a prayer
B                   B/E                    C#m9                           B
  I remember how you   made me feel, I was funny, I was thoughtful, I was rare


[Chorus 2]

      E/G#      F#/A#     B        D#m7  C#m7  E         F#/A#               B    
e|--------------------------------|------------------------------------------------------------|
B|--------------------------------|------------------------------------------------------------|
G|----4----4----4----4----4----4--|------------1----1------------------------8----8----8----8--|
D|----6----6----4----4----4----4--|--4----2----2----2----8----8----8----8----9----9----9----9--|
A|----7----7----7----7----6----6--|--6----4----2----2----9----9----9----9----9----9----9----9--|
E|----4----4----6----6----7----7--|--0----0----0----0----6----6----6----6----7----7----7----7--|

             E/G#                  F#/A#           B                  
But like the jokes about my figure,     kids think I don't understand
D#m7  C#m7  E            F#/A#               B    
              I know I’m just your... little ampersand


[Verse 3]

      B                   B/E                      C#m9                B
e|--------------------------------------------|------------------------------------------------|
B|--------------------------------------------|------------------------------------------------|
G|----8----8----8----8----8----8----8----8----|----8----8----8----8----8----8----8----8--------|
D|----9----9----9----9----9----9----9----9----|----9----9----9----9----9----9----9----9--------|x2
A|----9----9----9----9----9----9----9----9----|----7----7----7----7----9----9----9----9--------|
E|----7----7----7----7----0----0----0----0----|----9----9----9----9----7----7----7----7--------|

B                    B/E              C#m9                               B
  And after Christmas   holidays, you never asked to drive me home again
B                   B/E            C#m9                                   B
  Sometimes in the staff room I'd, catch your eye with, "why'd it have to end?"


[Chorus 3]

      E/G#      F#/A#     B        D#m7  C#m7  E         F#/A#               B    
e|--------------------------------|------------------------------------------------------------|
B|--------------------------------|------------------------------------------------------------|
G|----4----4----4----4----4----4--|------------1----1------------------------8----8----8----8--|
D|----6----6----4----4----4----4--|--4----2----2----2----8----8----8----8----9----9----9----9--|
A|----7----7----7----7----6----6--|--6----4----2----2----9----9----9----9----9----9----9----9--|
E|----4----4----6----6----7----7--|--0----0----0----0----6----6----6----6----7----7----7----7--|

      E/G#              F#/A#        B              
But I know from how you worry at your wedding band
D#m7  C#m7  E          F#/A#               B    
              That I'm just your... little ampersand


[Interlude]

      B                   B/E                      C#m9                B
e|--------------------------------------------|------------------------------------------------|
B|--------------------------------------------|------------------------------------------------|
G|----8----8----8----8----8----8----8----8----|----8----8----8----8----8----8----8----8--------|
D|----9----9----9----9----9----9----9----9----|----9----9----9----9----9----9----9----9--------|x2
A|----9----9----9----9----9----9----9----9----|----7----7----7----7----9----9----9----9--------|
E|----7----7----7----7----0----0----0----0----|----9----9----9----9----7----7----7----7--------|


[Outro]

      E/G#      F#/A#     B        D#m7  C#m7  E         F#/A#               B    
e|--------------------------------|------------------------------------------------------------|
B|--------------------------------|------------------------------------------------------------|
G|----4----4----4----4----4----4--|------------1----1------------------------8----8----8----8--|
D|----6----6----4----4----4----4--|--4----2----2----2----8----8----8----8----9----9----9----9--|
A|----7----7----7----7----6----6--|--6----4----2----2----9----9----9----9----9----9----9----9--|
E|----4----4----6----6----7----7--|--0----0----0----0----6----6----6----6----7----7----7----7--|

       E/G#             F#/A#      B          
At the last conjunction after every other and
D#m7  C#m7  E       F#/A#               B    
              I was just your... little ampersand

Suggest correction
Creating personal tab
Creating personal tab
You can edit any tab online and save it as your Personal.

You can edit, replace or remove any tab part or add personal notes – all changes will be seen only by you.

Personal tabs can be accessed anytime from any device, even offline.
Learn more »
Give kudos to tab author, rate the tab!
1 2 3 4 5
comments
print report bad tab
guest
You may want to rate the tab now too:
select rating
Wanna post a correction for this tab? Suggest correction