Oops, an error
Loading. Please wait.

Red Blue Jeans tab

version 1
version 1

Whole song

Interactive

354 views 1 this week
no commentswrite comment
1 2 3 4 5
3 more votes to show rating
add to favorites
×
Save as Personal and add changes to this tab that will be seen only by you. Learn more ›
×
You can save this tab as Personal to edit and correct it or add notes. All changes will be seen only by you. Learn more »
launch autoscroll
font size
0
reset
how to read this tab
guitar tuner
edit
Autoscroll
slow
fast
+/-
esc
set tempo
stop
Author
Difficulty
Tabbers playing skills
intermediate
advanced ++
-------------------------------------------------------------------------------
                             RED BLUE JEANS - John Kilzer
-------------------------------------------------------------------------------

Tabbed by: Isaias Garcia (TexasFury)

Tuning: Standard


Rhythm Guitar - left

     m.6 - Intro                                                                                 
     Q           Q    H           Q    Q    H           Q    Q    H           H        H         
E||----------------------------|---------------------|---------------------|--------------------|
B||----------------------------|---------------------|---------------------|--------------------|
G||--7-------------------------|--3------------------|---------------------|--------------------|
D||--7-------------------------|--3------------------|--5------------------|--3--------5--------|
A||--5-------------------------|--1------------------|--5------------------|--3--------5--------|
E||----------------------------|---------------------|--3------------------|--1--------3--------|


  Verse 1                                                                              
  PM      PM PM PM PM PM           PM PM PM PM PM PM          PM PM PM PM PM PM PM PM  
  E       E  E  E  E  E  E  E      E  E  E  E  E  E  E  E     E  E  E  E  E  E  E  E   
--------------------------------|--------------------------|--------------------------|
--------------------------------|--------------------------|--------------------------|
--------------------------------|--------------------------|--------------------------|
--7----------7-----7--7--7--L\--|--3-----3-----3-----3--3--|--------------------------|
--5-------5--5--5--5--5--5--L\--|--1--1--1--1--1--1--1--0--|--5--5--5--5--5--5--5--5--|
--------------------------------|--------------------------|--3--3--3--3--3--3--3--3--|


  PM PM PM PM PM PM PM       PM PM PM PM PM PM           PM PM PM PM PM PM        
  E  E  E  E  E  E  E  E     E  E  E  E  E  E  E  E      E  E  E  E  E  E  E  E   
--------------------------|---------------------------|--------------------------|
--------------------------|---------------------------|--------------------------|
--------------------------|---------------------------|--------------------------|
-----------------------0--|--7-----7-----7--7--7--L\--|--3-----3--3--3--3--3--3--|
--3--3--3--3--5--5--5--0--|--5--5--5--5--5--5--5--L\--|--1--1--1--1--1--1--1--0--|
--1--1--1--1--3--3--3-----|---------------------------|--------------------------|


  PM PM PM PM PM PM PM PM    PM PM PM PM PM PM PM       PM PM PM PM PM PM         
  E  E  E  E  E  E  E  E     E  E  E  E  E  E  E  E     E  E  E  E  E  E  E  E    
--------------------------|--------------------------|---------------------------|
--------------------------|--------------------------|---------------------------|
--------------------------|--------------------------|---------------------------|
--------------------------|-----------------------0--|--7-----7-----7--7--7--L\--|
--5--5--5--5--5--5--5--5--|--3--3--3--3--5--5--5--0--|--5--5--5--5--5--5--5--L\--|
--3--3--3--3--3--3--3--3--|--1--1--1--1--3--3--3-----|---------------------------|


  PM PM >  PM PM PM >        PM PM PM PM PM PM PM PM    PM PM PM PM PM PM PM     
  E  E  E  E  E  E  E  E     E  E  E  E  E  E  E  E     E  E  E  E  E  E  E  E   
--------------------------|--------------------------|--------------------------|
--------------------------|--------------------------|--------------------------|
--------------------------|--------------------------|--------------------------|
--3--3--3--3--3--3--3--3--|--------------------------|-----------------------5--|
--1--1--1--1--1--1--1--0--|--5--5--5--5--5--5--5--5--|--3--3--3--3--5--5--5--5--|
--------------------------|--3--3--3--3--3--3--3--3--|--1--1--1--1--3--3--3-----|


  PM PM PM PM PM PM           PM PM >  PM PM PM >        PM PM PM PM PM PM PM PM  
  E  E  E  E  E  E  E  E      E  E  E  E  E  E  E  E     E  E  E  E  E  E  E  E   
---------------------------|--------------------------|--------------------------|
---------------------------|--------------------------|--------------------------|
---------------------------|--------------------------|--------------------------|
--7--7--7--7--7--7--7--L\--|--3--3--3--3--3--3--3--3--|--------------------------|
--5--5--5--5--5--5--5--L\--|--1--1--1--1--1--1--1--0--|--5--5--5--5--5--5--5--5--|
---------------------------|--------------------------|--3--3--3--3--3--3--3--3--|


  PM PM PM PM PM PM PM       PM PM PM PM PM PM           PM PM >  PM PM PM >      
  E  E  E  E  E  E  E  E     E  E  E  E  E  E  E  E      E  E  E  E  E  E  E  E   
--------------------------|---------------------------|--------------------------|
--------------------------|---------------------------|--------------------------|
--------------------------|---------------------------|--------------------------|
-----------------------0--|--7--7--7--7--7--7--7--L\--|--3--3--3--3--3--3--3--3--|
--3--3--3--3--5--5--5--0--|--5--5--5--5--5--5--5--L\--|--1--1--1--1--1--1--1--0--|
--1--1--1--1--3--3--3-----|---------------------------|--------------------------|


  PM PM PM PM PM PM PM PM    PM PM PM PM PM PM PM       PM PM PM PM PM PM         
  E  E  E  E  E  E  E  E     E  E  E  E  E  E  E  E     E  E  E  E  E  E  E  E    
--------------------------|--------------------------|---------------------------|
--------------------------|--------------------------|---------------------------|
--------------------------|--------------------------|---------------------------|
--------------------------|-----------------------5--|--7--7--7--7--7--7--7--L\--|
--5--5--5--5--5--5--5--5--|--3--3--3--3--5--5--5--5--|--5--5--5--5--5--5--5--L\--|
--3--3--3--3--3--3--3--3--|--1--1--1--1--3--3--3-----|---------------------------|


  PM PM >  PM PM PM >        PM PM PM PM PM PM PM PM    PM PM PM PM PM PM PM     
  E  E  E  E  E  E  E  E     E  E  E  E  E  E  E  E     E  E  E  E  E  E  E  E   
--------------------------|--------------------------|--------------------------|
--------------------------|--------------------------|--------------------------|
--------------------------|--------------------------|--------------------------|
--3--3--3--3--3--3--3--3--|--------------------------|-----------------------5--|
--1--1--1--1--1--1--1--0--|--5--5--5--5--5--5--5--5--|--3--3--3--3--5--5--5--5--|
--------------------------|--3--3--3--3--3--3--3--3--|--1--1--1--1--3--3--3-----|


  PM PM PM PM PM PM           PM PM >  PM PM PM PM       PM PM PM PM PM PM PM PM  
  E  E  E  E  E  E  E  E      E  E  E  E  E  E  E  E     E  E  E  E  E  E  E  E   
---------------------------|--------------------------|--------------------------|
---------------------------|--------------------------|--------------------------|
---------------------------|--------------------------|--------------------------|
--7--7--7--7--7--7--7--L\--|--3--3--3--3--3--3--3--3--|--------------------------|
--5--5--5--5--5--5--5--L\--|--1--1--1--1--1--1--1--0--|--5--5--5--5--5--5--5--5--|
---------------------------|--------------------------|--3--3--3--3--3--3--3--3--|


                             Chorus 1                                                   
  PM PM PM PM PM PM PM       PM       PM PM PM PM PM           PM PM >  PM PM PM PM     
  E  E  E  E  E  E  E  E     E        E  E  E  E  E  E  E      E  E  E  E  E  E  E  E   
--------------------------|---------------------------------|--------------------------|
--------------------------|---------------------------------|--------------------------|
--------------------------|---------------------------------|--------------------------|
-----------------------5--|--7--------7--7--7--7--7--7--L\--|--3--3--3--3--3--3--3--3--|
--3--3--3--3--5--5--5--5--|--5--------5--5--5--5--5--5--L\--|--1--1--1--1--1--1--1--0--|
--1--1--1--1--3--3--3-----|---------------------------------|--------------------------|


  PM PM PM PM PM PM PM PM    PM PM PM PM PM PM PM       PM PM PM PM PM PM         
  E  E  E  E  E  E  E  E     E  E  E  E  E  E  E  E     E  E  E  E  E  E  E  E    
--------------------------|--------------------------|---------------------------|
--------------------------|--------------------------|---------------------------|
--------------------------|--------------------------|---------------------------|
--------------------------|-----------------------0--|--7--7--7--7--7--7--7--L\--|
--5--5--5--5--5--5--5--5--|--3--3--3--3--5--5--5--0--|--5--5--5--5--5--5--5--L\--|
--3--3--3--3--3--3--3--3--|--1--1--1--1--3--3--3-----|---------------------------|


  PM PM >  PM PM PM PM       PM PM PM PM PM PM PM PM    PM PM PM PM PM PM PM PM  
  E  E  E  E  E  E  E  E     E  E  E  E  E  E  E  E     E  E  E  E  E  E  E  E   
--------------------------|--------------------------|--------------------------|
--------------------------|--------------------------|--------------------------|
--------------------------|--------------------------|--------------------------|
--3--3--3--3--3--3--3--3--|--------------------------|--------------------------|
--1--1--1--1--1--1--1--0--|--5--5--5--5--5--5--5--5--|--3--3--3--3--5--5--5--5--|
--------------------------|--3--3--3--3--3--3--3--3--|--1--1--1--1--3--3--3--3--|


  Bridge                                                                                       
                                                PM             PM                              
  W                   W                   E  E  E  E  E  E  E  E     E  E  E  E  E  E  E  E    
-------------------|-------------------|--------------------------|---------------------------|
-------------------|--3----------------|--------------------------|---------------------------|
--5----------------|--0----------------|-----7--------7--7--------|--7--7-----7--------7--L\--|
--5----------------|--0----------------|--7--7--7--7--7--7--7--7--|--7--7--7--7--7--7--7--L\--|
--3----------------|-------------------|--5--5--5--5--5--5--5--5--|--5--5--5--5--5--5--5--L\--|
-------------------|--3----------------|--------------------------|---------------------------|


                                                       PM             PM  
  Q    Q    E  E  E  E     H.           E  E     E  E  E  E  E  E  E  E   
------------------------|---------------------|--------------------------|
------------------------|---------------------|--------------------------|
--5----5-------------5--|--0---------------5--|-----7--------7-----------|
--5----5----5--5--5--5--|--0---------------5--|--7--7--7--7--7--7--7--7--|
--3----3----3--3--3--3--|---------------------|--5--5--5--5--5--5--5--5--|
------------------------|--3------------3-----|--------------------------|


                                                                               PM             PM  
  E  E  E  E  E  E  E  E     H.           E  E     H.           E  E     E  E  E  E  E  E  E  E   
--------------------------|---------------------|---------------------|--------------------------|
--------------------------|---------------------|---------------------|--------------------------|
--7--------7-----7--7--0--|--5---------------5--|--0---------------5--|-----7--------7-----------|
--7--7--7--7--7--7--7--0--|--5------------5--5--|--5---------------5--|--7--7--7--7--7--7--7--7--|
--5--5--5--5--5--5--5-----|--3------------3--3--|--5------------5-----|--5--5--5--5--5--5--5--5--|
--------------------------|---------------------|--3------------3-----|--------------------------|


  E   E  E  E  E  E  E  E     W                   W                   Q.     E  Q    Q     
---------------------------|-------------------|-------------------|----------------------|
---------------------------|-------------------|--3----------------|----------------------|
--5h--7-----7--L--7--7--0--|--5----------------|--0----------------|----------------------|
--5h--7--7--7--L--7--7--0--|--5----------------|--0----------------|--0------2--L----3----|
---------5--5--L--5--5-----|--3----------------|-------------------|----------------------|
---------------------------|-------------------|--3----------------|----------------------|


                                               Guitar Solo                       
                                                                 PM              
  W                   H        E  E  E   E     E           E  E  E  Q    E  E    
--1----------------|--L--------L------------|-----------------------------------|
--1----------------|--L--------L------------|-----------------------------------|
--3----------------|--L--------L--x--3h--5--|--------------7--7-----7----7--L\--|
--3----------------|--L--------L--x--3h--5--|--7-----------7--7--7--7----7--L\--|
--1----------------|--L--------L------------|--5-----------5--5--5--5----5--L\--|
-------------------|------------------------|-----------------------------------|


  E  E  E  E  E  E  E  E     E  E  E  E  E  E  E  E     E  E  E  E  E  E  E  E   
--------------------------|--------------------------|--------------------------|
--------------------------|--------------------------|--------------------------|
--------------------------|--------------------------|-----------------------5--|
--3-----3--3-----3--3-----|-----5--5-----5-----5--5--|-----------------------5--|
--1--1--1--1--1--1--1--0--|-----5--5-----5-----5--5--|--3-----3--3--5--5--5-----|
--------------------------|--3--3--3--3--3--3--3--3--|--1--1--1--1--3--3--3-----|


           PM                                                                      
  E  E  E  E  E  E  E  E      E  E  E  E  E  E  E  E     E  E  E  E  E  E  E  E    
---------------------------|--------------------------|---------------------------|
---------------------------|--------------------------|---------------------------|
-----7--7-----7-----7--L\--|--------------------------|---------------------------|
--7--7--7--7--7-----7--L\--|--3-----3--3-----3--5--5--|-----5--5-----5--5--5--L\--|
--5--5--5--5--5--5--5--L\--|--1--1--1--1--1--1--5--5--|-----5--5-----5--5--5--L\--|
---------------------------|--------------------3--3--|--3--3--3--3--3--3--3--L\--|


  E  E  Q    E  E  E  E     E  E  E  E  E  E  E  E     E  E  E  E  E  E  Q     
-------------------------|--------------------------|-------------------------|
-------------------------|--------------------------|-------------------------|
----------------------5--|--------7--7--7--------7--|-----3--3-----3--3--3----|
--3--3--3----5--5--5--5--|--------7--7--7--------7--|-----3--3-----3--3--3----|
--3--3--3----5--5--5-----|--5--5--5--5--5--5--5--5--|--1--1--1--1--1--1--1----|
--1--1--1----3--3--3-----|--------------------------|-------------------------|


  E  E  E  E  E  E  E  E      E  E  Q    E  E  E  E     E  E  E  E  E  E  E  E    
---------------------------|-------------------------|---------------------------|
---------------------------|-------------------------|---------------------------|
---------------------------|----------------------5--|-----7--7-----7--7--7--L\--|
-----5-----5--5--5--5--L\--|--3--3--3----5--5--5--5--|-----7--7-----7--7--7--L\--|
-----5--5--5--5--5--5--L\--|--3--3--3----5--5--5-----|--5--5--5--5--5--5--5--L\--|
--3--3--3--3--3--3--3--L\--|--1--1--1----3--3--3-----|---------------------------|


  E  E  E  E  E  E  E  E     E  E  E  E  E  E  E  E      E  E  Q    E  E  E  E   
--------------------------|---------------------------|-------------------------|
--------------------------|---------------------------|-------------0--1--0--1--|
--3--3--3-----3-----3--3--|---------------------------|-------------0--0--0--0--|
--3--3--3-----3-----3--3--|-----5--5-----5--5--5--L\--|--3--3--3----0--0--0--0--|
--1--1--1--1--1--1--1--1--|-----5--5-----5--5--5--L\--|--3--3--3----------------|
--------------------------|--3--3--3--3--3--3--3--L\--|--1--1--1----------------|


  Guitar Breakdown                                                                             
  PM               PM PM PM PM PM PM PM    PM PM PM PM PM PM PM PM    PM PM PM PM PM PM PM PM  
  E                E  E  E  E  E  E  E     E  E  E  E  E  E  E  E     E  E  E  E  E  E  E  E   
----------------------------------------|--------------------------|--------------------------|
----------------------3-----1-----------|--------3-----1-----------|--------1-----3-----1-----|
-------------------2-----2-----0-----0--|-----3-----3-----3-----0--|-----0-----0-----0-----0--|
--0-------------------------------3-----|--0-----------------0-----|--2-----------------------|
----------------------------------------|--------------------------|--------------------------|
----------------------------------------|--------------------------|--------------------------|


  PM PM PM PM          PM    PM PM PM PM PM PM PM PM    PM PM PM PM PM PM PM PM  
  E  E  E  E  E  E  E  E     E  E  E  E  E  E  E  E     E  E  E  E  E  E  E  E   
--------------------------|--------------------------|--------------------------|
--------1-----3-----1-----|--x-----3-----1-----------|--------3-----1-----------|
-----3-----3-----3-----3--|-----2-----2-----0-----0--|-----3-----3-----3-----0--|
--0-----------------------|--0-----------------3-----|--0-----------------0-----|
--------------------------|--------------------------|--------------------------|
--------------------------|--------------------------|--------------------------|


                                                        Chorus                        
  PM PM PM PM PM PM PM PM                                                             
  E  E  E  E  E  E  E  E     E  E  E  E  E  E  E  E     E      E  E  E  E  E  E  E    
--------------------------|-----1--1--1--1--1--1--1--|-------------------------------|
--------3-----1-----------|-----1--1--1--1--1--1--1--|-------------------------------|
-----0-----0-----0-----0--|--3-----------------------|---------7--7-----7-----7--L\--|
--2-----------------2-----|--------------------------|---------7--7-----7-----7--L\--|
--------------------------|--------------------------|--5------5--5--5--5--5--5--L\--|
--------------------------|--------------------------|-------------------------------|


  E  E  E  E  E  E  E  E     E  E  E  E  E  E  E  E      E  E  Q    E  E  E  E   
--------------------------|---------------------------|-------------------------|
--------------------------|---------------------------|-------------------------|
--3-----3--3-----3--3-----|---------------------------|----------------------5--|
--3-----3--3-----3--3--5--|--5-----5-----------5--L\--|--3--3--3----5--5--5--5--|
--1--1--1--1--1--1--1--5--|--5-----5-----------5--L\--|--3--3--3----5--5--5-----|
--------------------------|--3--3--3--3--3--3--3--L\--|--1--1--1----3--3--3-----|


  E  E  E  E  E  E  Q       E  E  E  E  E  E  E  E     E  E  E  E  E  E  E  E   
-------------------------|--------------------------|--------------------------|
-------------------------|--------------------------|--------------------------|
-----7--7--7--7--7--7----|--3-----3-----3-----3-----|--------------------------|
-----7--7--7--7--7--7----|--3-----3-----3-----3-----|--------------------5--5--|
--5--5--5--5--5--5--5----|--1--1--1--1--1--1--1--0--|-----5--5-----5-----5--5--|
-------------------------|--------------------------|--3--3--3--3--3--3--3--3--|


  E  E  Q    E  E  Q       E  E  E  E  E  E  E  E      E  E  E  E  E  E  E  E   
------------------------|---------------------------|--------------------------|
------------------------|---------------------------|--------------------------|
------------------------|-----7--------7-----7--L\--|--3-----3-----3--3--3--0--|
--3--3--3----5--5--5----|-----7--------7-----7--L\--|--3-----3-----3--3--3--0--|
--3--3--3----5--5--5----|--5--5--5--5--5--5--5--L\--|--1--1--1--1--1--1--1-----|
--1--1--1----3--3--3----|---------------------------|--------------------------|


  E  E  E  E  E  E  E  E      E  E  E  E  E  E  E  E     E  E  E  E  E  E  E  E   
---------------------------|--------------------------|--------------------------|
---------------------------|--------------------------|--------------------------|
---------------------------|-----------------------5--|--7-----------7-----7--0--|
--5-----5-----------5--L\--|-----------------------5--|--7-----------7-----7--0--|
--5-----5-----------5--L\--|--------------------------|--5--5--5--5--5--5--5-----|
--3--3--3--3--3--3--3--L\--|--1--1--1--1--3--3--3-----|--------------------------|


  E  E  E  E  E  E  E  E     E  E  E  E  E  E  E  E     E  E  E  E  E  E  E  E   
--------------------------|--------------------------|--------------------------|
--------------------------|--------------------------|--------------------------|
--------------------------|--------------------------|-----------------------5--|
--------3--3-----3--3--3--|--------------------------|-----------------------5--|
--1--1--1--1--1--1--1--1--|--5--5--5--5--5--5--5--5--|--3--3--3--3--5--5--5-----|
--------------------------|--3--3--3--3--3--3--3--3--|--1--1--1--1--3--3--3-----|


  E  E  E  E  E  E  E  E      E  E  E  E  E  E  E  E     E  E  E  E  E  E  E  E   
---------------------------|--------------------------|--------------------------|
---------------------------|--------------------------|--------------------------|
--7--7--------7-----7--L\--|--3-----3--3-----3--3-----|--------------------------|
--7--7--------7-----7--L\--|--3-----3--3-----3--3-----|--------------------------|
--5--5--5--5--5--5--5--L\--|--1--1--1--1--1--1--1--0--|--5--5--5--5--5--5--5--5--|
---------------------------|--------------------------|--3--3--3--3--3--3--3--3--|


                              Outro                                                  
  E  E  E  E   E  E  E  E     E     E  E  E  E  E  E  E     E  E  E  E  E  E  E  E   
---------------------------|-----------------------------|--------------------------|
---------------------------|-----------------1-----------|--------3-----1-----1--3--|
------------------------5--|--------2-----2-----0-----0--|-----3-----3-----3--------|
------------------------5--|--0--------0-----------3-----|--0-----------------------|
--3--3--3--L/--5--5--5-----|-----------------------------|--------------------------|
--1--1--1--L/--3--3--3-----|-----------------------------|--------------------------|


  E  E  E  E  E  E  E  E     E  E  E  E  E  E  E  E     E  E  E  E  E  E  E  E   
--------------------------|--------------------------|--------------------------|
--------------------------|--------------------------|--------3-----1-----------|
--------0-----2--0-----0--|--------0-----------0-----|-----2-----2-----0-----0--|
-----0-----0--------------|-----2-----2-----2-----2--|--0-----------------3-----|
--2-----------------2-----|--3-----------4-----------|--------------------------|
--------------------------|--------------------------|--------------------------|


  E  E  E  E  E  E  E  E     E  E  E  E  E   E  E  E     E  E  E  E  E  E  Q      
--------------------------|---------------------------|--------------------------|
--------3-----1-----------|---------------------------|--------------------------|
-----3-----3-----3-----3--|--------0-----2p--0-----0--|--------0-----------2\----|
--0-----------------0-----|-----0-----0---------------|-----2-----2-----2--------|
--------------------------|--2------------------2-----|--3-----------4-----------|
--------------------------|---------------------------|--------------------------|


  E  E  E  E  E  E  E  E     E  E  E  E  E  E  E  E     E  E  E  E  E   E  E  E   
--------------------------|--------------------------|---------------------------|
--------3-----1-----------|--------3-----1-----------|---------------------------|
-----2-----2-----0-----0--|-----3-----3-----3-----0--|--------0-----2p--0-----0--|
--0-----------------3-----|--0-----------------0-----|-----0-----0---------------|
--------------------------|--------------------------|--2------------------2-----|
--------------------------|--------------------------|---------------------------|


  begin fade                                                                              
  E          E  E  E  E  E  E  E      E  E  E  E  E  E  E  E     E  E  E  E  E  E  E  E   
-----------------------------------|--------------------------|--------------------------|
-----------------------------------|--------3-----1-----------|--------3-----1-----------|
----------------0-----------2--L\--|-----2-----2-----0-----0--|-----3-----3-----3-----0--|
-------------2-----2-----2---------|--0-----------------3-----|--0-----------------0-----|
--3-------------------4------------|--------------------------|--------------------------|
-----------------------------------|--------------------------|--------------------------|


  E  E  E  E  E   E  E  E     E  E  E  E  E  E  E  E      E  E  E  E  E  E  E  E   
---------------------------|---------------------------|--------------------------|
---------------------------|---------------------------|--------3-----1-----------|
--------0-----2p--0-----0--|--------0-----------2--L\--|-----2-----2-----0-----0--|
-----0-----0---------------|-----2-----2-----2---------|--0-----------------3-----|
--2------------------2-----|--3-----------4------------|--------------------------|
---------------------------|---------------------------|--------------------------|


  E  E  E  E  E  E  E  E    
--------------------------||
--------3-----1-----------||
-----3-----3-----3-----0--||
--0-----------------0-----||
--------------------------||
--------------------------||



Rhythm Guitar - right

     Q    Q    H           Q    Q    H           Q    Q    H           H        H         
E||---------------------|---------------------|---------------------|--------------------|
B||---------------------|---------------------|---------------------|--------------------|
G||--7------------------|--3------------------|---------------------|--------------------|
D||--7------------------|--3------------------|--5------------------|--3--------5--------|
A||--5------------------|--1------------------|--5------------------|--3--------5--------|
E||---------------------|---------------------|--3------------------|--1--------3--------|


  Verse 1                                                                              
  PM      PM PM PM PM PM           PM PM PM PM PM PM          PM PM PM PM PM PM PM PM  
  E       E  E  E  E  E  E  E      E  E  E  E  E  E  E  E     E  E  E  E  E  E  E  E   
--------------------------------|--------------------------|--------------------------|
--------------------------------|--------------------------|--------------------------|
--------------------------------|--3-----------------------|--------------------------|
--7----------7-----7--7--7--L\--|--3-----3-----3-----3-----|--------------------------|
--5-------5--5--5--5--5--5--L\--|--1--1--1--1--1--1--1--0--|--5--5--5--5--5--5--5--5--|
--------------------------------|--------------------------|--3--3--3--3--3--3--3--3--|


                                PM               >                              
  E  E  E  E  E  E  E  E     E  E  Q    E  E  E  E     E  E  E  E  E  E  E  E   
--------------------------|-------------------------|--------------------------|
--------------------------|--3-----3-------3--------|--3-----------------------|
--------------------------|--2-----2----2--2--2--0--|--0-----0--0--0--0--0-----|
--------3--------------0--|--0--0--0----0--0--0--0--|-----3--0--0--0--0--0--3--|
--3--3--3--3--5--5--5--0--|-------------------------|--------------------------|
--1--1--1--1--3--3--3-----|-------------------------|--------------------------|


  E  E  E  E  E  E  E  E     E  E  E  E  E  E   E  E     W                   W                 
--------------------------|---------------------------|-------------------|-------------------|
--3-----------3-----------|--3-----3------------------|--3----------------|--L----------------|
--0--0--0-----0-----0--0--|--0-----0--2--0------0--2--|--2----------------|--L----------------|
--0--0--0--3-----3--0--0--|-----3-----------3b--------|--0----------------|--L----------------|
--------------------------|---------------------------|-------------------|-------------------|
--------------------------|---------------------------|-------------------|-------------------|


  W                   H        Q    E  E     Q    E  E  E  E  E  E     Q    E  E  E  E  E  E   
-------------------|-------------------3--|-------------------------|-------------------------|
-------------------|-------------------3--|-------3--3--------------|--3-------------------3--|
-------------------|-------------------0--|--2----2--2-----2--0--0--|--0----0-----0--------0--|
-------------------|-------------------0--|--0----0--0--0--0--0--0--|--0-------3-----3--0--0--|
-------------------|----------------------|-------------------------|-------------------------|
-------------------|----------------------|-------------------------|-------------------------|


  Q    E  E  E  E  E  E     E  E  E  E  E  E  E  E     Q    Q    E  E  E  E   
-------------------------|--------------------------|------------------------|
--3----3--------------3--|--3-----3-----3--3--3-----|-------3----------------|
--0----0-----0--------0--|--0-----0-----0--2--0-----|--2----2----2--2--2--0--|
--0-------3-----3--0--0--|--0--3-----3--0--0--0--3--|--0----0----0--0--0--0--|
-------------------------|--------------------------|------------------------|
-------------------------|--------------------------|------------------------|


  E  E  E  E  E  E  E  E     E  E  E  E  E  E  E  E     E  E  E  E  E  E  E  E   
--------------------------|--------------------------|--------------------------|
--3--3--3-----3-----3--3--|--3--3--3-----3--------3--|--3-----3-----3--3--3-----|
--0--0--0-----0-----0--0--|--0--0--0-----0--------0--|--0-----0-----0--2--0-----|
--0--0--0--3-----3--0-----|--0--0--0--3-----3--0-----|--0--3-----3--0--0--0--3--|
--------------------------|--------------------------|--------------------------|
--------------------------|--------------------------|--------------------------|


  W                   W                   W                   H        E  E  E  E   
-------------------|-------------------|-------------------|-----------------------|
--3----------------|--L----------------|-------------------|--------------3-----1--|
--2----------------|--L----------------|-------------------|--------------2--0--2--|
--0----------------|--L----------------|-------------------|-----------------------|
-------------------|-------------------|-------------------|-----------------------|
-------------------|-------------------|-------------------|-----------------------|


  W                   W                   W                   H        Q    E  E   
-------------------|-------------------|-------------------|----------------------|
--3----------------|--L----------------|-------------------|----------------------|
--2----------------|--L----------------|-------------------|-------------------0--|
--0----------------|--L----------------|-------------------|-------------------0--|
-------------------|-------------------|-------------------|----------------------|
-------------------|-------------------|-------------------|----------------------|


  Chorus 1                                                                          
                         >                                                          
  Q        Q    E  E  E  E     E  E  E  E   E  E  E  E     E  E  E  E  E  E  E  E   
----------------------------|---------------------------|--------------------------|
-----------3----------------|--3-----3------3--------3--|--3--3--3-----3--------3--|
--2--------2----2--2--2--0--|--0-----0------0--------0--|--0--0--0-----0-----0--0--|
--0--------0----0--0--0--0--|-----0-----3b-----3--0-----|--0--0--0--3-----3--0--0--|
----------------------------|---------------------------|--------------------------|
----------------------------|---------------------------|--------------------------|


                                                  >                             
  E  E  E  E  E  E  E  E     E  E  E  E  E  E  E  E     Q    E  E  E  E  E  E   
--------------------------|--------------------------|-------------------------|
--3--3--3-----3-----3--3--|--------3-----------------|--3----3-----3-----3--3--|
--0--2--0-----0-----0--2--|--2--2--2--2--2--2--2--0--|--0----0-----0-----0--0--|
-----------3-----3--------|--0--0--0--0--0--0--0--0--|----------3-----3--0--0--|
--------------------------|--------------------------|-------------------------|
--------------------------|--------------------------|-------------------------|


                                                          Bridge                                
  E  E  E  E   E  E  E  E     E  E  E  E   E  E  E  E     W                   W                 
---------------------------|---------------------------|-------------------|-------------------|
--3--3--3------3--------3--|--3-----3------3-----3--3--|--3----------------|--0----------------|
--0--0--0------0--------0--|--0--2--0------0-----0--0--|--0----------------|--0----------------|
--0--0--0--3b-----3--0--0--|-----------3b-----3--0-----|-------------------|--0----------------|
---------------------------|---------------------------|--3----------------|-------------------|
---------------------------|---------------------------|-------------------|--3----------------|


  E  E  E  E  Q.     E     Q    E  E  E  E  E  E     W                   W                 
------------------------|-------------------------|-------------------|-------------------|
--3--3-----3--L---------|--3-------3--L--3--3-----|--3----------------|--0----------------|
--2--2--x--2--L------0--|--2----x--2--L--2--2--0--|--0----------------|--0----------------|
--0--0--x--0--L------0--|--0----x--0--L--------0--|-------------------|--0----------------|
-----------0--L---------|--0-------0--L-----------|--3----------------|-------------------|
------------------------|-------------------------|-------------------|--3----------------|


  E  E  E  E  E  E  E   E     E  E  E   E  E  E  Q       W                   H.           E  E   
---------------------------|--------------------------|-------------------|---------------------|
---------------------------|--3-----------------------|--3----------------|--3------------------|
-----2--2-----2--0---------|--2--0---------0-----0----|--0----------------|--0---------------0--|
-----0--0--0--0-----3b--0--|--0-----3b--0--0--3--0----|-------------------|--0------------0-----|
--0------------------------|--------------------------|--3----------------|---------------------|
---------------------------|--------------------------|-------------------|--3------------------|


  Q    E  E  Q    E  E     E   E  E  E  E  E   Q        W                   W                 
------------------------|----------------------------|-------------------|-------------------|
--3-------3--L----------|------------3--L--3--(0)----|--3----------------|-------------------|
--2----x--2--L----x--2--|--0h--2--x--2--L--2---0-----|--0----------------|--0----------------|
--0----x--0--L----x--0--|--0---L--x--0--L--0---0-----|-------------------|--0----------------|
--0-------0--L-------0--|----------------------------|--3----------------|-------------------|
------------------------|----------------------------|-------------------|--3----------------|


  Q.     E  Q    Q       W                   H        E  E  E   E   
----------------------|--1----------------|--L--------L------------|
----------------------|--1----------------|--L--------L------------|
----------------------|--3----------------|--L--------L--x--3h--5--|
--0------2--L----3----|--3----------------|--L--------L--x--3h--5--|
----------------------|--1----------------|--L--------L------------|
----------------------|-------------------|------------------------|


  Guitar Solo                                                                                 
  E           E  E  E  Q    E   E       E   E  E  E  E  E  E   E      E  E  E  E  Q    E  E   
------------------------------------|------------------------------|-------------------------|
--3-----------3--------3------------|------------------------------|-------------------------|
--2-----------2--------2----2--(0)--|--(0)--------3----------------|-----0--------0----------|
--0-----------0--------0----0-------|---3---------3-----3--3--(0)--|-----5--------5----------|
--------------------0--0------------|---1---1--1--1-----1--1--(0)--|-----5--------5----5--3--|
------------------------------------|------------------------------|--3-----3--3--3----3--1--|


     PM                                                                             
  E  E  E  E   E    E    E   E     E  E  Q    Q    Q       E  E  E  E  E  E  E  E   
--------------------------------|-----------------------|--------------------------|
--------------(0)--(0)--(0)-----|-----3--3----3---------|--------------------------|
--0-----0--0-----------------0--|-----2--2----2----2----|--3-----------3--3--------|
--3-----3--3---5----5----5---0--|-----0--0----0----0----|--3-----3--3--3--3--------|
--3-----3--3---5----5----5------|--0--------------------|--1--1--1--1--1--1--0--5--|
--1--1--1--1---3----3----3------|-----------------------|-----------------------3--|


                                               >                             
  E  E  E  E  Q    Q       E  E  Q    E  E  E  E     E  E  Q    E  E  E  E   
------------------------|-------------------------|-------------------------|
------------------------|-------------------------|-----3--3----3--3--------|
-----0--------0----0----|-------------0--0--0--0--|--2--2--2----2--2--0--2--|
-----5--------5----5----|-------------5--5--5--0--|--0--0--0----0--0--0--0--|
-----5--------5----5----|--3--3--3----5--5--5-----|-------------------------|
--------3--3------------|--1--1--1----3--3--3-----|-------------------------|


  E  E  Q     E    E   E  E     E  E  Q    E  E  E  E     E  E  E  E  E  E  E  E   
-----------------------------|-----3--3----3--3--3--3--|--------------------------|
-------------(1)--(1)--------|-----3--3----3--3--3--3--|--------------------------|
-----3--3-----3----3---3--3--|-----0--0----0--0--0--0--|-----------------0--0--0--|
-----3--3-----3----3---3--3--|-------------------------|--------------5--5--5--5--|
-----1--1-----1----1---1--1--|-------------------------|--3--3--3--3--5--5--5--5--|
-----------------------------|-----3--3----3--3--3--3--|--1--1--1--1--3--3--3--3--|


  E  E  Q    E  E  E  E     E  E  Q    E  E  E  E     E  E  Q    E  E  E  E   
-------------------------|-------------------------|-----3--3----3--3--3--3--|
-----3--3----3--3--------|-------------------------|-----3--3----3--3--3--3--|
-----2--2----2--2--0--2--|-----3--3----3--3--3--3--|-----0--0----0--0--0--0--|
-----0--0----0--0--0--0--|-----3--3----3--3--3--3--|-----0--0----0--0--0-----|
-------------------------|-----1--1----1--1--1--1--|-------------------------|
-------------------------|-------------------------|-----3--3----3--3--3--3--|


                            Guitar Breakdown                                          
  E  E  Q    E  E  E  E     W                   W                   W                 
-------------------------|-------------------|-------------------|-------------------|
--3--3--3----3-----3--3--|-------------------|-------------------|-------------------|
--0--2--2----0-----3--2--|-------------------|-------------------|-------------------|
--0--0--0-------3--------|-------------------|-------------------|-------------------|
-------------------------|-------------------|-------------------|-------------------|
-------------------------|-------------------|-------------------|-------------------|


                      PM PM    PM PM PM PM PM    PM PM PM PM PM PM PM PM  
  W                   E  E  E  E  E  E  E  E     E  E  E  E  E  E  E  E   
-------------------|--------------------------|--------------------------|
-------------------|--------6-----5-----------|--------6-----5-----------|
-------------------|-----7-----------7-----5--|-----7-----------5-----5--|
-------------------|--5--------5--------5-----|--8--------8--------8-----|
-------------------|--------------------------|--------------------------|
-------------------|--------------------------|--------------------------|


                                                        Chorus                                      
  PM PM PM PM PM PM PM PM                                                                           
  E  E  E  E  E  E  E  E     E  E  E  E  E  E  E  E     H.           E  E     Q    E  E  Q.     E   
--------------------------|--------------------------|---------------------|--------------------3--|
--------6-----5-----------|--------6-----------6-----|--3------------3--1--|--L-------1--L------3--|
-----5-----5-----5-----5--|-----5--5--5--5--5--5--5--|--2------------2--3--|--L----3------------0--|
--5-----------------5-----|--8-----------------------|--0------------0--3--|--L-----------------0--|
--------------------------|--------------------------|--0------------0--1--|--L--------------------|
--------------------------|--------------------------|---------------------|-----------------------|


  W                   E  E  E  E  E  E  E  E     E  E  E  E  E  E  E  E   
--3----------------|--------------3--3--3--3--|--------------------------|
--3----------------|--6--6--6-----3--3--3--3--|-----3-----3--3--3-----x--|
--0----------------|--5--5--5--0--0--0--0--0--|-----2-----2--2--2--2--0--|
--0----------------|--3--3--3--0--0--0--0--0--|--0--0--0--0--0--0--0--0--|
-------------------|--------------------------|--0--------------------x--|
--3----------------|--------------3--3--3--3--|--------------------------|


  E  E  E  E  E  E  E  E     E  E  E  E  E  E  E  E     E  E   E  E  E  E   E  E   
--------------------------|--------------------------|----------------------------|
--3--3--3-----3-----------|--3--3--3-----3-----------|--3------3--3--3------------|
--0--0--0-----0--------0--|--0--0--0-----0--------0--|--0------0--2--0---------2--|
-----------3-----3--0-----|-----------3-----3--0-----|-----3b-----------3b--0-----|
--------------------------|--------------------------|----------------------------|
--------------------------|--------------------------|----------------------------|


           PM                                                                    
  E  E  E  E  E  E  E  E     E  E  E  E  E  E  E  E     E  E  E  E  E  E   Q     
--------------------------|--------------------------|--------------------------|
-----3--3-----3--3--L-----|--3--3--3-----3-----------|--3--3--3-----3------3----|
-----2--2-----2--2--L--0--|--0--0--0-----0-----0--0--|--0--0--0-----0------0----|
--0--0--0--0--0--0--L--0--|-----------3-----3--0-----|-----------3-----3b--0----|
--0-----------------------|--------------------------|--------------------------|
--------------------------|--------------------------|--------------------------|


                                       PM                                        
  E  E  E  E  E  E   E  E     E  E  E  E  Q    E  E     E  E  E  E  E  E  E  E   
---------------------------|-------------------------|--------------------------|
--3--3--3-----3---------3--|-----3--3-----3----------|--3--3--3-----3-----------|
--0--2--0-----0---------2--|-----2--2-----2----2--0--|--0--0--0-----0-----0--0--|
-----------3-----3b--0-----|--0--0--0--0--0----0--0--|-----------3-----3--0-----|
---------------------------|--0----------------------|--------------------------|
---------------------------|-------------------------|--------------------------|


                                                         45.685                      
  E  E  E  E  E  E  E  E     E  E  E  E  E  E   E  E     E      E  E  E  Q    E  E   
--------------------------|---------------------------|-----------------------------|
--3-----3-----3-----3-----|--3--3--3-----3---------3--|--L---------3-----3----x-----|
--0-----0-----0-----0-----|--0--2--0-----0---------2--|--L------2-----2-------2--0--|
-----3-----3-----3--0--0--|-----------3-----3b--0-----|--------------------------0--|
--------------------------|---------------------------|-----------------------------|
--------------------------|---------------------------|-----------------------------|


  E  E  E  E  E  E  E  E     Q    E  E  E  E  E  E     E  E  E  E  E  E  E  E   
--------------------------|-------------------------|--------------------------|
--------------------------|-------------------------|--3-----3-----3-----------|
--0-----0-----0--------0--|--L----0-----0--------0--|--0--2--0-----0--------0--|
-----0-----3-----3--0-----|----------3-----3--0-----|-----------3-----3--0-----|
--------------------------|-------------------------|--------------------------|
--------------------------|-------------------------|--------------------------|


  Outro                                                                        
  E     E  H.              E  E  E  E  E  E  E  E     E  E  E  E  E  E  E  E   
------------------------|--------------------------|--------------------------|
--------3--3------------|--------------------------|--------------------------|
--2--------2------------|--0-----0-----0--------0--|--0--0--0-----0--------0--|
--0--------0------------|-----3-----3-----3--0--0--|-----------3-----3--0--0--|
------------------------|--------------------------|--------------------------|
------------------------|--------------------------|--------------------------|


  E  E  E  E  E  E  E  E     E  E  H.              E  E  E  E  E  E  E  E   
--------------------------|---------------------|--------------------------|
--3-----------------------|-----3--3------------|--------------------------|
--0--2--0-----0--------0--|--2-----2------------|--0--0--0-----0--------0--|
--0--------3-----3--0-----|--0-----0------------|-----------3-----3--0--0--|
--------------------------|---------------------|--------------------------|
--------------------------|---------------------|--------------------------|


  E  E  E  E  E  E  E  E     E  E   E  E  E  E  E  E     E  E  H.            
--------------------------|---------------------------|---------------------|
--------------------------|------------3--------3--3--|-----3--3------------|
--0--0--0-----0--------0--|--0------0--2--0--------0--|--2-----2------------|
-----------3-----3--0--0--|-----3b-----------3--0-----|--0-----0------------|
--------------------------|---------------------------|---------------------|
--------------------------|---------------------------|---------------------|


                                                        begin fade                        
  E  E  E  E  E  E  E  E     E  E  E  E  E  E  E  E     E          E   E  E  E  E  E  E   
--------------------------|--------------------------|-----------------------------------|
--------------------------|--------------------------|--------------------3--------3--3--|
--0--0--0-----0--------0--|--0--0--0-----0--------0--|--0--------------0--2--0--------0--|
-----------3-----3--0--0--|-----------3-----3--0--0--|-------------3b-----------3--0-----|
--------------------------|--------------------------|-----------------------------------|
--------------------------|--------------------------|-----------------------------------|


  E  E  H.              E  E  E  E  E  E  E  E     E  E  E  E  E  E  E  E   
---------------------|--------------------------|--------------------------|
-----3--3------------|--------------------------|--------------------------|
--2-----2------------|--0--0--0-----0--------0--|--0--0--0-----0--------0--|
--0-----0------------|-----------3-----3--0--0--|-----------3-----3--0--0--|
---------------------|--------------------------|--------------------------|
---------------------|--------------------------|--------------------------|


  E  E  E  E  E  E  E  E     E  E  H.              E  E  E  E  E  E  E  E    
--------------------------|---------------------|--------------------------||
-----3-----3--------3--3--|-----3--3------------|--------------------------||
--0--2--0-----0--------0--|--2-----2------------|--0--0--0-----0--------0--||
-----------3-----3--0-----|--0-----0------------|-----------3-----3--0--0--||
--------------------------|---------------------|--------------------------||
--------------------------|---------------------|--------------------------||



Lead Guitar

      m.61                                      Guitar Solo                       
                           \6                                                     
      W                    H.           Q       E           E  E  E  Q     E  E   
E||--22----------------|---L-----------------|-----------------------------------|
B||--------------------|---------------------|--3-----------L--3--3--3~----3--3--|
G||--------------------|---------------------|--0h----------2--2--2--2~----2--0--|
D||--------------------|---------------------|-----------------------------------|
A||--------------------|---------------------|-----------------------------------|
E||--------------------|---------------------|-----------------------------------|


  E  E  E  E  E  E  E  E     E  E   E  E  E  E  E  E     E  E  E  E  E  E   E  E    
--------------------------|---------------------------|----------------------------|
--L-----3--3-----------3--|--L------3--3-----------3--|--L-----3-----3-------------|
--L--0--0--0--0--------0--|--L------0--2--0--------0--|--L-----0-----0-------------|
-----------------3--0-----|-----3b-----------3--0-----|-----3-----3-----3b--L--5/--|
--------------------------|---------------------------|----------------------------|
--------------------------|---------------------------|----------------------------|


      E   E   Q     Q      E   E      E   E   E   E   E   E   E   E    
---------10--10-----------10------|-----------------------------------|
---------10--10----10~----10------|------10---------------------------|
------------------------------12--|---L------12--10--12--10------12~--|
--11g12---------------------------|--------------------------12-------|
----------------------------------|-----------------------------------|
----------------------------------|-----------------------------------|


   E   E   E    E    E    E      Q        H.             Q      
--------------------------------------|------------------------|
--------------------------------------|------------------------|
---L--10--12p--10h--12p--10--12g17----|--17b-------------L\----|
--------------------------------------|------------------------|
--------------------------------------|------------------------|
--------------------------------------|------------------------|


              T          T          T          T   
   Q      E   S   S   S  S   S   S  S   S   S  S   
--------------------------------------------------|
--------------------------------------------------|
--------------------------------------------------|
--10h----12--15p-10h-12-15p-10h-12-15p-10h-12-15p-|
--------------------------------------------------|
--------------------------------------------------|


          T          T          T          T          T           
                                               |---3--|           
   S   S  S   S   S  S   S   S  S   S   S  S   S   S  S   S   S   
-----------------------------------------------------------------|
-----------------------------------------------------------------|
-----------------------------------------------------------------|
--10h-12-15p-10h-12-15p-10h-12-15p-10h-12-15p-10h-12-15p-12p-10s-|
-----------------------------------------------------------------|
-----------------------------------------------------------------|


      T         T         T         T        T                                     
  E   S  S   S  S   S  S  S  S   S  S   E    S  S      H          E   E   E   E    
---------------------------------------------------|------------------------------|
---------------------------------------------------|------------------------------|
---------------------------------------------------|---------------------10--12b--|
--9--17p-9h-12-17p-12p-9-17p-9h-12-17p-12h--17p-9s-|--10~--------12--12-----------|
---------------------------------------------------|------------------------------|
---------------------------------------------------|------------------------------|


   E   E   E   E    E   E   E   S  S    E   S  S E  E   E  E   Q      
----------10-----------10------------|-------------------------------|
------10------13b---L------13--10s-8-|--L--------8------x------------|
---L---------------------------------|-----10p-7----7--10------------|
-------------------------------------|---------------------7~--L~----|
-------------------------------------|-------------------------------|
-------------------------------------|-------------------------------|


     |----3---|   |----3---|                                                        
     E   E    E   E    E   E   Q      E   S   S     Q      Q      E     E   E   E   
------------------------------13~--------13h-15-|--15b----15b----15br---L--13------|
--------------------------15---------15---------|------------------------------15--|
-----------------13h--16------------------------|----------------------------------|
--------12h--15---------------------------------|----------------------------------|
--7g14------------------------------------------|----------------------------------|
------------------------------------------------|----------------------------------|


   Guitar Breakdown                    
   E.               S  Q    H          
-------------------------------------||
--15~---------------L\---------------||
-------------------------------------||
-------------------------------------||
-------------------------------------||
-------------------------------------||


      m.100 - Chorus                                                  
      E              E   E   E    H             Q      H.             
E||-----------------------------------------|------------------------|
B||-----------------------------------------|------------------------|
G||--10-------------------------------------|------------------------|
D||-----------------12--12--12~---L~--------|--12~----12~------------|
A||-----------------------------------------|------------------------|
E||-----------------------------------------|------------------------|


   E    E   E   E    Q      E   E     H         H             E    E   E   E    E    E   E   E   
-----------------------------------|----------------------|-------------------------------------|
-----------------------------------|----------------------|-------------------------------------|
-----------------------------------|----------------------|-------------------------------------|
--10h--12--12--12~---L~-----L--12--|-----------12~--------|--10h--12--12--12~---L~--12--12--12--|
-----------------------------------|----------------------|-------------------------------------|
-----------------------------------|----------------------|-------------------------------------|


                                                 Outro                
  H        Q.       E      W                     Q     H.             
-----------------------|---------------------|-----------------------|
-----------------------|---------------------|-----------------------|
-----------7s------14--|---Lb----------------|---L----14~------------|
-----------------------|---------------------|-----------------------|
-----------------------|---------------------|-----------------------|
-----------------------|---------------------|-----------------------|


   E   E   E    E   E   E   E   E       Q      Q      S   S  E   E   E    
------------------------------------|------------------------------------|
---------------10-------------------|------------------------------------|
--12--10--12b------10---------------|---------10b------------------------|
-----------------------12--10--12~--|---L~-----------12p-10-----10--12~--|
------------------------------------|-----------------------12-----------|
------------------------------------|------------------------------------|


   Q      E   E   Q.      E       E   E    H          E     E    
------------------------------|--10-----------------------------|
------------------------------|------13b---L~---------L~--(12)--|
---------10--12---L-------Lb--|---------------------------------|
---L~-------------------------|---------------------------------|
------------------------------|---------------------------------|
------------------------------|---------------------------------|


                                                       |----3---|   |----3---|    
   E   E   E   E   E   E   E   E       Q      E   E    E   E    E   E    E   E    
-----------------------------------|---------------------------------------------|
--------------10-------------------|-------------13p--10-------------------------|
--12--10--12------12--10------10~--|---L~-----L-----------12p--10-----------12h--|
--------------------------12-------|-------------------------------12p--10-------|
-----------------------------------|---------------------------------------------|
-----------------------------------|---------------------------------------------|


   |----3---|   |----3---|   |----3---|                                                
   E   E    E   E    E   E   E   E    E   E    E      E   E   E   E    E   E   E   E   
--------------------------------------------------|-----------------------------------|
--------------------------------------------------|--------------10~---L------10------|
--10----------------------------------------------|--------------10~---L------10------|
------12p--10-----------12--10--------------------|--10--10--12-----------12------10--|
---------------12p--10----------12p--10-----------|-----------------------------------|
-----------------------------------------13b--10--|-----------------------------------|


   E   E   E   E   Q      E   E      E   E   E   E    E   E   E   E   
---------------------------------|-----------------------------------|
------10--10------10~--------10--|---L------10-----------12--12--10--|
------10--10------10~--------10--|---L------10-----------12--12--10--|
--12----------12---------12------|------12------12~---L--------------|
---------------------------------|-----------------------------------|
---------------------------------|-----------------------------------|


   begin fade                                                               
   E          E   E   E   E   E   S   S  E      E   E   Q     Q      Q      
--------------------------------------------|------10--10------------------|
-------------------------10-----------------|------10--10----13b-----L~----|
--10---------------------10------12b-10-----|------------------------------|
-----------------10--12------12---------12--|--12--------------------------|
-------------12-----------------------------|------------------------------|
--------------------------------------------|------------------------------|


   Q      Q      E   E   Q         W                      H            H            
------------------------15b----|---Lpb----------------|---Lpbr--------15pbr--------|
---L~----13~----13--12---------|----------------------|----------------------------|
-------------------------------|----------------------|----------------------------|
-------------------------------|----------------------|----------------------------|
-------------------------------|----------------------|----------------------------|
-------------------------------|----------------------|----------------------------|


   Q      E     E     E     E     E     E        Q      E     E     E     E     E     E      
--15b----15pb--15pb--15pb--15pb--15pb--15pb--|--15b----15pb--15pb--15pb--15pb--15pb--15pb--||
---------------------------------------------|---------------------------------------------||
---------------------------------------------|---------------------------------------------||
---------------------------------------------|---------------------------------------------||
---------------------------------------------|---------------------------------------------||
---------------------------------------------|---------------------------------------------||




Duration Legend
---------------
W - whole
H - half
Q - quarter
E - 8th
S - 16th
T - 32nd
X - 64th
. - note dotted
|-n-|  - n-tuplets


Tablature Legend
----------------
L - tied note
x - dead note
g - grace note
(n) - ghost note
> - accentuded note
NH - natural harmonic
AH - artificial harmonic
TH - tapped harmonic
SH - semi harmonic
PH - pitch harmonic
h - hammer on
p - pull off
b - bend
br - bendRelease
pb - preBend
pbr - preBendRelease
brb - bendReleaseBend
\n/ - tremolo bar dip
\n - tremolo bar dive
-/n - tremolo bar Release up
/n\ - tremolo bar inverted dip
/n - tremolo bar return
-\n - tremolo bar Release down
S - shift slide
s - legato slide
/ -  slide into from below or out of upwards
\ -  slide into from above or out of downwards
~ - vibrato
W - wide vibrato
tr - trill
TP - tremolo picking
T - tapping
S - slap
P - pop
< - fade in
^ - brush up
v - brush down

            
            
Suggest correction
Creating personal tab
Creating personal tab
You can edit any tab online and save it as your Personal.

You can edit, replace or remove any tab part or add personal notes – all changes will be seen only by you.

Personal tabs can be accessed anytime from any device, even offline.
Learn more »
Give kudos to tab author, rate the tab!
1 2 3 4 5
comments
print report bad tab
guest
You may want to rate the tab now too:
select rating
Wanna post a correction for this tab? Suggest correction