Oops, an error
Loading. Please wait.

I Love Night And Day tab

40 views 1 this week
no commentswrite comment
1 2 3 4 5
3 more votes to show rating
add to favorites
×
Save as Personal and add changes to this tab that will be seen only by you. Learn more ›
×
You can save this tab as Personal to edit and correct it or add notes. All changes will be seen only by you. Learn more »
launch autoscroll
font size
0
reset
how to read this tab
guitar tuner
edit
Autoscroll
slow
fast
+/-
esc
set tempo
stop
Author
Difficulty
John Kip website: http://www.johnkip.com/

Intro: C#m  A9  E  E5

E|---0-----0-----0---0-----0----------------|
B|-5---5-5---5-5---5---5-5---5-5/2-------0--|
G|------------------------------------------|
D|------------------------------------------|
A|------------------------------------------|
E|------------------------------------------|

E|---0-----0---------0-----0-------0-----0--|
B|-2---2-2---2-2/5-5---5-5---5-5/9---9-9----|
G|------------------------------------------|
D|------------------------------------------|
A|------------------------------------------|
E|------------------------------------------|

E|---------0-----0--------------------------|
B|-9-9/7-7---7-7---7-7----------------------|
G|------------------------------------------|
D|------------------------------------------|
A|------------------------------------------|
E|------------------------------------------|


C#m                      A9
There's a piece inside of me that's still attached to you
   C#m                                                A9
Maybe it's a secret or some treat that only you can do
C#m               A9                E5
   A very risky way to trap me with you touches
                  B4
A very lovely way to hug me in your arms
C#m                       A9
   I lose my cool and get so lost when I don't see your face
C#m                            A9
   I try to look for you in every little tiny space
C#m                A9                    E5
   But now my world can turn the way it did before
            B4                   A9 B4
Because I feel so lost and just can take no more

     C#m            A9
E|------------------------------------------|
B|---5-----5--------0-----0-----------------|
G|-----6-----6--------2-----2---------------|
D|------------------------------------------|   (3x)
A|-4-----4-----4--0-----0-----0-------------|
E|------------------------------------------|
     E5               B4
E|-----------0------------------------------|
B|---0-----0---0-----0-----0----------------|
G|-----4---------------4-----4--------------|
D|-2-----2----------------------------------|
A|-----------------2-----2------2/4---------|
E|------------------------------------------|

Chorus:
  Iê iê
C#m                     A9             E
  Every day and every night I'll keep you in my heart
                  B4                             C#m
The more I miss you love and more it makes me fall apart
           A9                E
I can feel this time it's real beyond my imagination
            B4
And now be hear to love you

You're my inspiration

E|---0-----0---------0-----0-------0-----0--|
B|-2---2-2---2-2/5-5---5-5---5-5/9---9-9----|
G|------------------------------------------|
D|------------------------------------------|
A|------------------------------------------|
E|------------------------------------------|

E|---------0----0---------------------------|
B|-9-97-7---7-7---7-7-----------------------|
G|------------------------------------------|
D|------------------------------------------|
A|------------------------------------------|
E|------------------------------------------|


C#m                  A9
Tem um pedaço do meu peito bem colado ao teu
C#m                        A9
   Alguma chave, algum segredo que me prende ao seu
C#m               A9                  E5
   Teu jeito perigoso de me conquistar
                  B4
Teu jeito tão gostoso de me abraçar
C#m                       A9
   Tudo se perde se transforma se ninguém te ve
C#m                         A9
   Eu busco as vezes nos detalhes encontrar voce
C#m                A9                    E5
   O tempo ja não passa só anda pra trás
                   B4                   A9 B4
Me perco nessa estrada não aguento mais

 Iê iê
C#m                     A9             E
  Passo o dia, passo a noite tô apaixonado
                  B4                    C#m
Coração no peito sofre sem voce do lado
                  A9                E
Dessa vez tudo é real nada de fantasia
                    B4
Saiba que eu te amo,  amo noite e dia...

E|-7/9-9-9-9-9/12-12-12-12-12-12\7-7-7-7-7-7-7-7-7-7-|
B|---------------------------------------------------|
G|---------------------------------------------------|
D|---------------------------------------------------|
A|---------------------------------------------------|
E|---------------------------------------------------|

E|-7/9-9-9-9-9/12-12-12-12-12-12\7-7-7-7-7-----------|
B|---------------------------------------------------|
G|---------------------------------------------------|
D|---------------------------------------------------|
A|---------------------------------------------------|
E|---------------------------------------------------|

E|-7-5-4-5-4---4-------------------------------------|
B|-----------7---7-5-7-5-4---------------------------|
G|-------------------------6-------------------------|
D|---------------------------------------------------|
A|---------------------------------------------------|
E|---------------------------------------------------|

            
            
Suggest correction
Creating personal tab
Creating personal tab
You can edit any tab online and save it as your Personal.

You can edit, replace or remove any tab part or add personal notes – all changes will be seen only by you.

Personal tabs can be accessed anytime from any device, even offline.
Learn more »
Give kudos to tab author, rate the tab!
1 2 3 4 5
comments
print report bad tab
guest
You may want to rate the tab now too:
select rating
Wanna post a correction for this tab? Suggest correction