Oops, an error
Loading. Please wait.
We have an official Boom Boom tab made by UG professional guitarists. Check out the tab »
×
5,797 views 3 this week
no commentswrite comment
1 2 3 4 5
1 last vote to show rating
add to favorites
×
Save as Personal and add changes to this tab that will be seen only by you. Learn more ›
×
You can save this tab as Personal to edit and correct it or add notes. All changes will be seen only by you. Learn more »
launch autoscroll
font size
0
reset
guitar tuner
edit
Autoscroll
slow
fast
+/-
esc
set tempo
stop
Author
Difficulty
intermediate
Intro
------------------------|
--------2---------------|
-----3------------------|
--0--------0------------|

intro repeats for about the first minute of the song you can spice it up bit like this

-------2----------|
----3-------------|
--0------0--------|
------------------|

Solos

------------------------------------------------------------|
-------------------------0----------------------------5---7-|
------------0-----0---3------0--0--------------7------------|
-0----0--3-----0-------------------3----3---0------0--------|

after the first solo it goes into the intro agian then back into the solo

            
            
Suggest correction
Creating personal tab
Creating personal tab
You can edit any tab online and save it as your Personal.

You can edit, replace or remove any tab part or add personal notes – all changes will be seen only by you.

Personal tabs can be accessed anytime from any device, even offline.
Learn more »
Give kudos to tab author, rate the tab!
1 2 3 4 5
comments
print report bad tab
guest
You may want to rate the tab now too:
select rating
Wanna post a correction for this tab? Suggest correction