Oops, an error
Loading. Please wait.

9 Dream Bass Tab

version 1
version 1

Whole song

Interactive

4,709 views 6 this week
no commentswrite comment
1 2 3 4 5
excellent!
x 1
add to favorites
launch autoscroll
font size
0
reset
guitar tuner
Tab Pro tools
  • play this tab
  • loop segment
  • change instrument
  • show fretboard
  • metronome
Autoscroll
slow
fast
+/-
esc
set tempo
stop
Contributor
#9 DREAM

John Lennon

INTRO

G|---------------------------------|---------------------------------|
D|---------------------------------|---------------------------------|
A|-3-------------------------------|---------------------------------|
E|---------------------------------|-0-------------------------------|

G|---------------------------------|---------------------------------|
D|---------------------------------|---------------------------------|
A|---------------------------------|---------------------------------|
E|-1-------------------------------|-0-------------------------------|

G|---------------------------------|---------------------------------|
D|---------------------------------|---------------------------------|
A|---------------------------------|-5-------------------------------|
E|-1---------------------------5---|-----------------5---------------|

G|---------------------------------|---------------------------------|
D|---------------------------------|---------------------------------|
A|---------------------------------|---------------------------------|
E|-1-----------1---1---------------|-3-----------3-------------------|

                                    VERSE
G|---------------------------------|---------------------------------|
D|---------------------------------|---------------------------------|
A|-------------------------2-------|-3-------------------------------|
E|-3---------------5---------------|---------------------------------|

G|---------------------------------|---------------------------------|
D|---------------------------------|---------------------------------|
A|---------------------------------|---------------------------------|
E|-0-------------------------------|-1-------------------------------|

G|---------------------------------|---------------------------------|
D|---------------------------------|---------------------------------|
A|---------------------------------|-------------------------3-------|
E|-0-------------------------------|-1---------------5---------------|

G|---------------------------------|---------------------------------|
D|---------------------------------|---------------------------------|
A|-5---------------5---------------|---------------------------------|
E|-------------5-------------------|-1---------------1-------5-------|

G|---------------------------------|---------------------------------|
D|---------------------------------|---------------------------------|
A|---------------------------------|-------------------------2-------|
E|-3-----------3-------------------|---------3-------5---------------|

VERSE

G||---------------------------------|---------------------------------|
D||---------------------------------|---------------------------------|
A||-3-------------------------------|---------------------------------|
E||---------------------------------|-0-------------------------------|

G|---------------------------------|---------------------------------|
D|---------------------------------|---------------------------------|
A|---------------------------------|---------------------------------|
E|-1-------------------------------|-0-------------------------------|

G|---------------------------------|---------------------------------|
D|---------------------------------|---------------------------------|
A|-------------------------3-------|-5---------------5---------------|
E|-1---------------5---------------|-------------5-------------------|

G|---------------------------------|---------------------------------|
D|-3-------------------------------|---------------------------------|
A|-----------------5-------3-------|---------------------------------|
E|---------------------------------|-3-----------3---3-----------3---|

G|---------------------------------|---------------------------------|
D|---------------------------------|---------------------------------|
A|---------------------------------|---------------------------------|
E|-3-----------3---3-----------3---|-3-----------3---3-----------3---|

G|---------------------------------|-----------------|
D|---------------------------------|-----------------|
A|---------------------------------|-----------------|
E|-3-----------3---3---0-------1---|-3---------------|

PRE-CHORUS

G|---------------------------------|---------------------------------|
D|---------------------------------|---------------------------------|
A|---------------------------------|---------------------------------|
E|-3-------3-----------0-------1---|-3-------3-----------3-------1---|

G|---------------------------------|---------------------------------|
D|---------------------------------|---------------------------------|
A|---------------------------------|---------------------------------|
E|-3-------3-----------3-------1---|-3-------3-----------3-------1---|

G|---------------------------------|---------------------------------|
D|---------------------------------|---------------------------------|
A|---------------------------------|---------------------------------|
E|-3-------3-----------3-------1---|-3-------3-----------3-------1---|

CHORUS

G|---------------------------------|---------------------------------|
D|-4-----------2-------------------|---------------------------------|
A|-------------------------2-------|-0---------------0-------2---0---|
E|---------------------------------|-------------0-------------------|

G|---------------------------------|---------------------------------|
D|-4-----------2-------------------|---------------------------------|
A|-------------------------2-------|-0-------0-------0-------2---0---|
E|---------------------------------|-----0---------------------------|

G|---------------------------------|---------------------------------|
D|-4---------------2---------------|---------------------------------|
A|-------------------------2-------|-0---------------0-------2---0---|
E|---------------------------------|-------------0-------------------|

G|---------------------------------|---------------------------------|
D|-4-------2---5-----------4---7---|---------2-------4---0---2---2---h
A|---------------------------------|---------------------------------|
E|---------------------------------|---------------------------------|

G|---------------------------------|---------------------------------|
D|-4---------------2---------------|---------------------------------|
A|-------------------------2-------|-0---0-----------0---0---2---0---|
E|---------------------------------|-------------0-------------------|

G|---------------------------------|---------------------------------|
D|-4-----------2-------------------|---------------------------------|
A|-------------------------2-------|-0---------------0-------2---0---|
E|---------------------------------|-------------0-------------------|

G|---------------------------------|---------------------------------|
D|-4-------2---5-----------4---7---|---------5-------4-------2-------|
A|---------------------------------|---------------------------------|
E|---------------------------------|---------------------------------|

BRIDGE

G|---------------------------------|---------------------------------|
D|---------------------------------|---------------------------------|
A|---------------------------------|-3-----------3---3-----------5---|
E|-3-----------3---3---------------|---------------------------------|

G|---------------------------------|---------------------------------|
D|---------------------------------|---------------------------------|
A|---------------------------------|-3-----------3---3---3-------5---|
E|-3-----------3---3---------------|---------------------------------|

G|---------------------------------|---------------------------------|
D|---------------------------------|---------------------------------|
A|---------------------------------|-3-----------3---3-------5-------|
E|-3-----------3---3---------------|---------------------------------|

G|---------------------------------|---------------------------------|
D|-4---------------2---------------|---------------------------------|
A|---------------------------------|-5---------------3---------------|
E|---------------------------------|---------------------------------|

G|---------------------------------|---------------------------------|
D|---------------------------------|---------------------------------|
A|-2---------------0---------------|---------------------------------|
E|---------------------------------|-3---------------1---------------|

 __________________________________
| 1.

VERSE

G|---------------------------------|---------------------------------|
D|---------------------------------|---------------------------------|
A|-3----------3----3---------------|---------------------------------|
E|---------------------------------|-0-----------0---0---------------|

G|---------------------------------|---------------------------------|
D|---------------------------------|---------------------------------|
A|---------------------------------|---------------------------------|
E|-1-----------1---1---------------|-0-----------0---0---------------|

G|---------------------------------|---------------------------------|
D|---------------------------------|---------------------------------|
A|---------------------------------|-5---------------5---------------|
E|-1-----------1---1---------------|-------------5-------------------|

G|---------------------------------|---------------------------------|
D|---------------------------------|---------------------------------|
A|---------------------------------|---------------------------------|
E|-1---------------1-------5-------|-3-----------3-------------------|

G|---------------------------------||
D|---------------------------------||
A|-------------------------2-------||
E|---------3-------5---------------||

  _________________________________
 | 2.
G|---------------------------------|---------------------------------|
D|---------------------------------|---------------------------------|
A|---------------------------------|-3-----------3---3-------5-------|
E|-3-----------3---3-----------3---|---------------------------------|

G||---------------------------------|---------------------------------||
D||---------------------------------|---------------------------------||
A||---------------------------------|-3-----------3---3-------5-------||
E||-3-----------3---3-----------3---|---------------------------------||
                                                   REPEAT AND FADE OUT
comments
We did not receive enough feedback on this tab! Please rate:
print report bad tab
1 2 3 4 5
I want to post or [tab]
guest
You may want to rate the tab now too:
select rating
Please do not post tabs as comments. Select "correction" instead!