Oops, an error
Loading. Please wait.

Crippled Inside Tab

version 2
version 2

Whole song

3,424 views 6 this week
no commentswrite comment
1 2 3 4 5
3 more votes to show rating
add to favorites
launch autoscroll
font size
0
reset
how to read this tab
guitar tuner
Autoscroll
slow
fast
+/-
esc
set tempo
stop
Help us to improve Ultimate-Guitar.com Take our survey!
×
Author
Difficulty
Tuning
Capo
intermediate
D A D F# A D
2nd fret
This arrangement is for the slide guitar and works when 1st guitar is tuned down half a step
and slide is tuned to open D. I did this so that the fret markers would still be on odd numbered
frets. I did use software to arrange this but the playback does not sound EXACTLY like the
recording in some measures. Adding that requirement quadruples the effort. So, as many tabs
suggest "listen to the song for timing".


(Capo 2)
Track 1 (Capo 2)
      You  can  shine your    shoes and  wear a       suit
D ||-----------------------|-----------------------|------------------------|
A ||-----------------------|-----------------------|-------------------5----|
F#||-----------------------|-----------------------|-------3/----5~---------|
D ||-----------------------|-----------------------|------------------------|
A ||-----------------------|-----------------------|------------------------|
D ||-----------------------|-----------------------|------------------------|


                       You  can  comb your    hair and  look quite
--5-----------------|----------------------|-----------------------|
--------------------|----------------------|-----------------------|
--------------------|----------------------|-----------------------|
--------------------|----------------------|-----------------------|
--------------------|----------------------|-----------------------|
--------------------|----------------------|-----------------------|


  cute                                              You  can  hide your
------------------------|------------------------|----------------------|
-------5/----3----------|-------5/--3------------|----------------------|
------------------3/----|--5-----------3---------|----------------------|
------------------------|------------------------|----------------------|
------------------------|------------------------|----------------------|
------------------------|------------------------|----------------------|


  face be   hind a       smile                        One  thing you cant
----------------------|-----------------------|----------------------------|
----------------------|--------7----6----5----|--4-------------------------|
----------------------|--------7----6----5----|--4-------------------------|
----------------------|--------7----6----5----|--4-------------------------|
----------------------|-----------------------|----------------------------|
----------------------|-----------------------|----------------------------|


  hide                     Is  when youre crippled in
----------------------|----------------------------------|
----------------------|----------------------------------|
----------------------|----------------------------------|
----------------------|----------------------------------|
----------------------|----------------------------------|
----------------------|----------------------------------|


  side                                                You  can  wear a
--------------4-------------|----------------------|----------------------|
-------3/--4-----4/----3----|----------------------|----------------------|
----------------------------|--3-------------------|----------------------|
----------------------------|----------------------|----------------------|
----------------------------|----------------------|----------------------|
----------------------------|----------------------|----------------------|


  mask and  paint your    face
-----------------------|----------------------------|
-----------------------|--------------7-------------|
-----------------------|-------5/--7-----7----------|
-----------------------|--------------------6/--7~--|
-----------------------|----------------------------|
-----------------------|----------------------------|


                              You  can  call your    self the  hu   man
---------------------------|----------------------|----------------------|
---------7-----------------|----------------------|----------------------|
--6/--7-------6/--7~-------|----------------------|----------------------|
---------------------------|----------------------|----------------------|
---------------------------|----------------------|----------------------|
---------------------------|----------------------|----------------------|


  race                                               You  can  wear a
-------7-----------------|-----7------------------|----------------------|
------------7/----5--5/--|--7-----7/----5---------|----------------------|
-------------------------|------------------------|----------------------|
-------------------------|------------------------|----------------------|
-------------------------|------------------------|----------------------|
-------------------------|------------------------|----------------------|


  col  lar  and  a       tie                         One  thing you cant
----------------------|----------------------|----------------------------|
----------------------|-------7----6----5----|--4-------------------------|
----------------------|-------7----6----5----|--4-------------------------|
----------------------|-------7----6----5----|--4-------------------------|
----------------------|----------------------|----------------------------|
----------------------|----------------------|----------------------------|


  hide                           Is  when youre crippled in
--------------4-------------|----------------------------------|
-------3/--4-----4/----3----|----------------------------------|
----------------------------|----------------------------------|
----------------------------|----------------------------------|
----------------------------|----------------------------------|
----------------------------|----------------------------------|


  side                              Well now  you     know      that your
--------------4-------------|----------------------|----------------------|
-------3/--4-----4/----3----|----------------------|----------------------|
----------------------------|--3-------------------|----------------------|
----------------------------|----------------------|----------------------|
----------------------------|----------------------|----------------------|
----------------------------|----------------------|----------------------|


  Cat       has  nine    lives                    Babe
----------------------|------------------------|----------------------|
----------------------|------------------------|----------------------|
----------------------|------------------------|----------------------|
----------------------|------------------2/----|--4-------------------|
----------------------|------------------------|----------------------|
----------------------|------------------------|----------------------|


  Nine      lives         to   it        self
-----------------------|----------------------|---------------------------|
-----------------------|----------------------|--------------2---------2--|
-----------------------|----------------------|-------1/--2-----1/--2-----|
-----------------------|----------------------|---------------------------|
-----------------------|----------------------|---------------------------|
-----------------------|----------------------|---------------------------|


                     But     you  only got  one                  And  a
--------------------------|----------------------|---------------2---------|
---------2----------------|----------------------|--4/----3/--4------------|
--1/--2-------------------|----------------------|-------------------------|
--------------1/--2-------|----------------------|-------------------------|
--------------------------|----------------------|-------------------------|
--------------------------|----------------------|-------------------------|


  dogs life aint fun                              Mamma      take a
------------------------|---------------7--------|-----------------------|
------------------------|--4/----3/--4-----------|-----------------------|
------------------------|------------------------|-----------------------|
------------------------|------------------------|-----------------------|
------------------------|------------------------|-----------------------|
------------------------|------------------------|-----------------------|


  look           ou      side
----------------------|------------------------|------------------------|
----------------------|------------------------|-----------------2/--3--|
----------------------|-----------------2/--3--|------------------------|
----------------------|------------------------|------------------------|
----------------------|------------------------|------------------------|
----------------------|------------------------|------------------------|

Guitar Break
------------------------------|-------------7--7------------|
----------6----------8--------|--6----------7--7------------|
--5/--6~-----5/--6~-----6~----|-----5/--6~----------7/--5/--|
------------------------------|-----------------------------|
------------------------------|-----------------------------|
------------------------------|-----------------------------|

---------------7--------|--------------7/----5--|------------------------------|
------------7-----------|-----------------------|----------12--------12--------|
--6----5g6--------------|-----------------------|--8/--10------12--------12----|
------------------------|-----------------------|------------------------------|
------------------------|-----------------------|------------------------------|
------------------------|-----------------------|------------------------------|

-------------------------------|--------------------------|
--6g8-----------6g8--8---------|--------------8-----------|
---------6g8------------6g8----|-------7/--8-----8/--6----|
-------------------------------|--------------------------|
-------------------------------|--------------------------|
-------------------------------|--------------------------|


                            .
--------------------------|---------------7-------|-------------------------|
---------8----------------|------------------7----|-------------------------|
--7/--8-------8/--6-------|-----------------------|--5/----7---------7/--5--|
--------------------------|--5/----7--------------|-------------------------|
--------------------------|-----------------------|-------------------------|
--------------------------|-----------------------|-------------------------|

-----------------------11----|--9----8----7----6----|
---------9g7----7g9----------|----------------------|
--5g7------------------------|----------------------|
-----------------------------|----------------------|
-----------------------------|----------------------|
-----------------------------|----------------------|

---------------------------|----------------------|--------------------|
--1g3----1g3---------------|--3----1--------------|--------------------|
----------------2g3--------|------------3----1----|--3-----------------|
---------------------------|----------------------|--------------------|
---------------------------|----------------------|--------------------|
---------------------------|----------------------|--------------------|

Last Verse

  You  can  live a       lie  un   til  you     die
----------------------|----------------------|-------7/----11------7--|
----------------------|----------------------|------------------------|
----------------------|----------------------|------------------------|
----------------------|----------------------|------------------------|
----------------------|----------------------|------------------------|
----------------------|----------------------|------------------------|


       One  thing you  cant    hide
-------4-----/----7----------|-------5/--7--------------|
-----------------------------|----------------7---------|
-----------------------------|---------------------7----|
-----------------------------|--------------------------|
-----------------------------|--------------------------|
-----------------------------|--------------------------|


       Is  when youre crippled in    side
-----------------------------------|----------------------|
-----------------------7/-------5--|----------------------|
-------3/--5-----------------------|-------7----7---------|
--4--------------------------------|-----------------7----|
-----------------------------------|----------------------|
-----------------------------------|----------------------|


       One  thing you cant    hide
----------------------------|-----------------------|
----------------------------|----------7------------|
----------------------------|--0----7-----7---------|
--4-------------------------|------------------4----|
----------------------------|-----------------------|
----------------------------|-----------------------|


      Is when youre crippled in      side
-----------------------------------|-------------------------|
--3/--4----------------------------|-------------------------|
-----------------------------------|--4/---7--6----5----4----|
-----------------------------------|-------------------------|
-----------------------------------|-------------------------|
-----------------------------------|-------------------------|


       One  thing you cant    hide
-------4--------------------|-------12--11--10/----11---------|
----------------------------|---------------------------------|
----------------------------|--------------------------10/----|
--4-------------------------|---------------------------------|
----------------------------|---------------------------------|
----------------------------|---------------------------------|


      Is when youre crippled in       side
---------------------------------7--|--5/----7--5-------------|
------------------------------------|--------------7--6-------|
--12--------------------------------|--------------------7----|
------------------------------------|-------------------------|
------------------------------------|-------------------------|
------------------------------------|-------------------------|


       H
----------------------||
----------------------||
--2/----3-------------||
----------------------||
----------------------||
----------------------||
Suggest correction
Give kudos to tab author, rate the tab!
1 2 3 4 5
comments
print report bad tab
guest
You may want to rate the tab now too:
select rating
Wanna post a correction for this tab? Suggest correction