Oops, an error
Loading. Please wait.

Every Man Has A Woman Who Loves Him chords

1,576 views 6 this week
no commentswrite comment
1 2 3 4 5
2 more votes to show rating
add to favorites
×
Save as Personal and add changes to this tab that will be seen only by you. Learn more ›
×
You can save this tab as Personal to edit and correct it or add notes. All changes will be seen only by you. Learn more »
launch autoscroll
font size
0
reset
transpose
0
reset
display chords
guitar tuner
edit
Autoscroll
slow
fast
+/-
esc
set tempo
stop
Author
Difficulty
Strumming
There is no strumming pattern for this song yet. and get +5 IQ
---------------------------------------------------------------------------
                Every Man Has a Woman Who Loves Him - John Lennon
---------------------------------------------------------------------------
Tabbed by: maguri
Tuning: Standard

John Lennon
Every Man Has a Woman Who Loves Him (recorded 1980)
(Yoko Ono)

From: "Every Man Has a Woman Who Loves Him" (1984)
Now a bonus track on: "Milk and Honey"

---------------------------------------------------------------------------

SOLO

  Em                                Am        
SAX/MARIMBA
  1 + 2 + 3 + 4 +  1 + 2 + 3 + 4 +  1 + 2 + 3 + 4 +  1 + 2 + 3 + 4 +  
e|----7-6-7-------|5---------------|----------------|----------------|
B|----------8-5-8-|--8-8-7-7-5-5-7-|----7-8-4-5-----|--------4-5-7-8-|
G|----------------|----------------|----------------|4-5-------------|
D|----------------|----------------|----------------|----------------|
A|----------------|----------------|----------------|----------------|
E|----------------|----------------|----------------|----------------|
GUITAR
  1 + 2 + 3 + 4 +  1 + 2 + 3 + 4 +  1 + 2 + 3 + 4 +  1 + 2 + 3 + 4 +  
e|----------------|----------------|----------------|----------------|
B|----------------|----------------|----------------|----------------|
G|----------------|----------------|----------------|----------------|
D|----------------|----------------|6-7-------------|----4-5---------|
A|----------------|----------------|------------6-7-|----------------|
E|0-------0-------|0---------------|----------------|------------6-7-|

---------------------------------------------------------------------------

INTRO
| Em | % | Am |% |


VERSE
Em              Am
Every man has a woman who loves him
   Em               Am      Em          Am
In rain or shine or life or death
Em                 Am
If he finds her in this life time
        Em           Am                     Em          Am
He will know when he presses his ear to her breast


MIDDLE 8
Em                   Am    
Why do I roam when I know you're the one
Em                    Am    
Why do I laugh when I feel like crying


SOLO
| Em | % | Am | % | Em | % | Am |% |


VERSE
Em                Am
Every woman has a man who loves her
Em                  Am       Em          Am
Rise or fall of her life and death
Em                  Am
If she finds him in this life time
         Em            Am             Em          Am
She will know when she looks into his eyes


MIDDLE 8
Em                   Am    
Why do I roam when I know you're the one
Em                  Am                Em          Am
Why do I run when I feel like holding you


VERSE (variation)
Em              Am
Every man has a woman who loves him
Em                 Am
If he finds her in this life time
        Em           Am
He will know ...


SOLO (= outro)
| Em | % | Am | % | Em | % | Am |% |

(repeat and fade)


            
            
Suggest correction
Creating personal tab
Creating personal tab
You can edit any tab online and save it as your Personal.

You can edit, replace or remove any tab part or add personal notes – all changes will be seen only by you.

Personal tabs can be accessed anytime from any device, even offline.
Learn more »
Give kudos to tab author, rate the tab!
1 2 3 4 5
comments
print report bad tab
guest
You may want to rate the tab now too:
select rating
Wanna post a correction for this tab? Suggest correction