Oops, an error
Loading. Please wait.

Give Me Some Truth Bass Tab

1,404 views 1 this week
no commentswrite comment
1 2 3 4 5
please rate
add to favorites
launch autoscroll
font size
0
reset
guitar tuner
Tab Pro tools
  • play this tab
  • loop segment
  • change instrument
  • show fretboard
  • metronome
×
Best way to learn
"Give Me Some Truth"
Autoscroll
slow
fast
+/-
esc
set tempo
stop
Contributor
  ------------------------------------------------------------------

   JOHN LENNON – GIVE ME SOME TRUTH (J Lennon) From IMAGINE album.
                 Released on 8th October 1971.

  ------------------------------------------------------------------






     VERSE


  G|---------------------------------|---------------------------------|
  D|-3---3---3---3-------------------|-----------------3---1---0-------|
  A|-----------------0---0---0---0---|-3---3---3---3---------------3---|
  E|---------------------------------|---------------------------------|





  G|---------------------------------|---------------------------------|
  D|---------------------------------|-------------------------------0-|
  A|-1---1---1---1---3---3---3---3---|-1---1---1---1---3---3---3---3---|
  E|---------------------------------|---------------------------------|





     00:14

  G|---------------------------------|---------------------------------|
  D|-3---3---3---3-------------------|-----------------3---1---0-------|
  A|-----------------0---0---0---0---|-3---3---3---3---------------3---|
  E|---------------------------------|---------------------------------|





  G|---------------------------------|---------------------------------|
  D|---------------------------------|---------------------------------|
  A|-1---1---1---1---3---3---3---3---|-1---1---1---1---3---3---3---3---|
  E|---------------------------------|---------------------------------|





     BRIDGE
     00:29

  G|---------------------------------|---------------------------------|
  D|-1---1---1---1---1---1---1---1---|-1---1---1---1---1---1---1---1---|
  A|---------------------------------|---------------------------------|
  E|---------------------------------|---------------------------------|





  G|---------------------------------|---------------------------------|
  D|---------------------------------|-6---6---6---6---6---6---6---6---|
  A|-4---4---4---4---4---4---4---4-6-|-------6-------6-------6---------|
  E|-------4-------4-----------------|---------------------------------|





  G|---------------------------------|
  D|-------------------------------0-|
  A|-1---1-1-1---1-1-1---1---1---1---|
  E|---------------------------------|





     GUITAR SOLO
     00:47

  G|---------------------------------|---------------------------------|
  D|-3---3---3---3\------------------|-----------------3---1---0-------|
  A|-----------------0---0---0---0---|-3---3---3---3---------------3---|
  E|---------------------------------|---------------------------------|





  G|---------------------------------|---------------------------------|
  D|---------------------------------|---------------------------------|
  A|-1---1---1---1---3---3---3---3---|-1---1---1---1---3---3---3---3---|
  E|---------------------------------|---------------------------------|





  G|---------------------------------|---------------------------------|
  D|-3---3---3---3-------------------|-----------------3---1---0-------|
  A|-----------------0---0-0-0---0---|-3---3---3---3---------------3---|
  E|---------------------------------|---------------------------------|





  G|---------------------------------|---------------------------------|
  D|---------------------------------|---------------------------------|
  A|-1---1---1---1---3---3---3---3---|-1---1---1---1---3---3---3---3---|
  E|---------------------------------|---------------------------------|





     BRIDGE
     01:15

  G|---------------------------------|---------------------------------|
  D|-1---1---1---1---1---1---1---1---|-1---1---1---1---1---1---1---1---|
  A|---------------------------------|---------------------------------|
  E|---------------------------------|---------------------------------|





  G|---------------------------------|---------------------------------|
  D|---------------------------------|-6-------6-------6-------6---6---|
  A|-4---4-4-4---4-4-4---4-4-4---4---|-----6-6-----6-6-----6-6---------|
  E|---------------------------------|---------------------------------|





  G|-------------3-------3-------3---|
  D|---------------------------------|
  A|-1---1-1-1-------1-1-----1-1-----|
  E|---------------------------------|





     VERSE
     01:33 ....




     01:47

  G|---------------------------------|---------------------------------|
  D|-3---3---3-0---------------------|-----------------3---1---0-------|
  A|-------------3---0---0---0---0---|-3---3---3---3-1-------------3---|
  E|---------------1-----------------|---------------------------------|





  G|---------------------------------|---------------------------------|
  D|---------------------------------|---------------------------------|
  A|-1---1---1---1---3---3---3---3---|-1---1---1---1---3---3---3---3---|
  E|---------------------------------|---------------------------------|





     BRIDGE
     02:02

  G|---------------------------------|---------------------------------|
  D|-1---1---1---1-1-1---1-1-1---1---|-1---1---1---1-1-1---1---1---1---|
  A|-------------------------------1-|---------------------------------|
  E|---------------------------------|---------------------------------|





  G|---------------------------------|---------------------------------|
  D|---------------------------------|-6---6---6-4-3---6---6-6-6---6---|
  A|-4---4---4---4---4---4---4---4-6-|-------6-------6-----------------|
  E|-------4-------4-------4---------|---------------------------------|





  G|---------------------------------|
  D|---------------------------------|
  A|-1---1-1-1---1---1---1-1-1-1-1---|
  E|---------------------------------|





     VERSE
     02:20 ....




     OUTRO
     02:48

  G|---------------------------------|---------------------------------|
  D|---------------------------------|---------------------------------|
  A|-1---1---1---1---3---3-3-3---3---|-1---1---1---1---3---3-3-3-3-3---|
  E|---------------------------------|---------------------------------|





  G|---------------------------------|---------------------------------|
  D|---------------------------------|---------------------------------|
  A|-1---1-1-1---1---3---3-3-3-3-3---|-1---1-3-1---1---3---3-3-3---3---|
  E|---------------------------------|---------------------------------|





  G|---------------------------------|---------------------------------|
  D|---------------------------------|---------------------------------|
  A|-1---1-1-1---1---3---3---3---3---|-1---1---1---1---3---3-3-3-3-3---|
  E|---------------------------------|---------------------------------| ....
comments
We did not receive enough feedback on this tab! Please rate:
print report bad tab
1 2 3 4 5
I want to post or [tab]
guest
You may want to rate the tab now too:
select rating
Please do not post tabs as comments. Select "correction" instead!