Oops, an error
Loading. Please wait.

Going Down On Love Chords

version 1
version 1

Whole song

1,109 views 3 this week
no commentswrite comment
1 2 3 4 5
excellent!
x 3
add to favorites
launch autoscroll
font size
0
reset
transpose
0
reset
simplify chords
display chords
guitar tuner
Autoscroll
slow
fast
+/-
esc
set tempo
stop
Help us to improve Ultimate-Guitar.com Take our survey!
×
Author
Difficulty
intermediate
---------------------------------------------------------------------------
                Going Down On Love - John Lennon
---------------------------------------------------------------------------
Tabbed by: maguri
Tuning: Standard

John Lennon
Going Down On Love (1974)
(John Lennon)

From: "Walls and Bridges"

---------------------------------------------------------------------------

RIFF 
 [F#m]
  1 + 2 + 3 + 4 +  1 + 2 + 3 + 4 +  1 + 2 + 3 + 4 +  1 + 2 + 3 + 4 +
e|----------------|----------------|----------------|----------------|
B|----2-4br-------|----2-----------|----2-4br-2-----|----2-----------|
G|2-4-2-4br-------|2-4-2-4~--------|2-4-2-4br-2-4---|2-4-2-4~--------|
D|2-4-------------|2-4---4~--------|2-4-------p-4---|2-4---4~--------|
A|----------------|----------------|------------h---|----------------|
E|----------------|----------------|----------------|----------------|

LINK
 [E?]
  1 + 2 + 3 + 4 +  1 + 2 + 3 + 4 +  
e|----------------|----------------|
B|----------------|----------------|
G|9-7---9-7---9-7-|----------------|
D|9-7-9-9-7-9-9-7-|9---------------|
A|----9-----9-----|9---------------|
E|----------------|----------------|

INSTRUMENTAL BRIDGE/CODA
  Bm7              E             Bm7              E(7)
  1 + 2 + 3 + 4 +  1 + 2 + 3 + 4 +  1 + 2 + 3 + 4 +  1 + 2 + 3 + 4 +
e|----------------|----------------|----------------|----------------|
B|----107---7---7-|5-----3---5-7-9-|----107---7---7-|5-----3---5-7-9-|
G|----7-7-9-7-9-7-|6-----4---6-7-9-|----7-7-9-7-9-7-|6-----4---6-7-9-|
D|9-------9---9---|----------------|9-------9---9---|----------------|
A|----------------|----------------|----------------|----------------|
E|----------------|----------------|----------------|----------------|

| br  Bend release
| ~   vibrato
| p   pull-off
| H   hammer-on

---------------------------------------------------------------------------


[F#m] RIFF (see above)
Got to get down, down on my knees
Got to get down, down on my knees


E
  Do do do do 
E                     E [break]
  Do do do do ooh ooh ooh


              F#m
Going down on love
A                F#m
   Going down on love
A                    F#7
   Going down, going down, going down


B
 When the real thing goes wrong
B
 And you can't get it on
B
 And your love she has gone
B
 And you got to carry on
B
 And you shoot out the light
B
 Ain't coming home for the night
B             [E?] LINK                      [break]
 You know you got to, got to, got to pay the price


A                              F#m
  Somebody please, please help me
A                            F#m             A
  You know I'm drowning in a sea of hatred


[F#m] RIFF (see above)
Got to get down, down on my knees
Got to get down, down on my knees


INSTRUMENTAL BRIDGE (see above)
| Bm7 | E | Bm7 | E(7) | 


E
  Do do do do 
E                     E [break]
  Do do do do ooh ooh ooh


              F#m
Going down on love
A                F#m
   Going down on love
A                    F#7
   Going down, going down, going down


B
 Something precious and rare
B
 Disappears in thin air
B
 And it seems so unfair
B
 Nothing doin' nowhere
B
 Well you burn all your boats
B
 And you sow your wild oats
B         LINK [E?]                            [break]
 Well you know, you know, you know the price is right


[F#m] RIFF (see above)
Got to get down, down on my knees
Got to get down, down on my knees
[F#m] RIFF (see above)
Got to get down, down on my knees
Got to get down, down on my knees
[F#m] RIFF (see above)
Got to get down, down on my knees
Got to get down, down on my knees


INSTRUMENTAL CODA (see above)
| Bm7 | E | Bm7 | E(7) | 
| Bm7 | E | Bm7 | E(7) | 

(repeat and fade)
Suggest correction
What's this?
You can suggest a correction to this tab. Community and Mods will review your correction and vote to approve or reject it.
comments
We did not receive enough feedback on this tab! Please rate:
print report bad tab
1 2 3 4 5
guest
You may want to rate the tab now too:
select rating
Please do not post tabs as comments. Select "correction" instead!