Oops, an error
Loading. Please wait.

Happy Xmas War Is Over Bass Tab

version 1
version 1

Whole song

Interactive

20,486 views 1 this week
no commentswrite comment
1 2 3 4 5
accurate
x 4
add to favorites
launch autoscroll
font size
0
reset
guitar tuner
Tab Pro tools
  • play this tab
  • loop segment
  • change instrument
  • show fretboard
  • metronome
×
Best way to learn
"Happy Xmas War Is Over"
Autoscroll
slow
fast
+/-
esc
set tempo
stop
Contributor
Difficulty
novice
----------------------------------------------------------------------------
	           Happy X-Mas (War Is Over) - John Lennon
----------------------------------------------------------------------------

Tabbed By:      Olle-Sweden
e-mail:         olle_93_@hotmail.com

Tuning:         Standard (EBGDAE)
Time Signature: 3/4

  Verse
  00:22, 01:21
G|-------|-----|-----|-----|-------|-----|-----|-----|-------|
D|-------|-----|-----|-----|-------|-----|-----|-----|-----5-|
A|-0-2-4-|-5---|-----|-5---|---5-6-|-7---|-----|-7---|---7---|
E|-------|-----|---5-|-----|-------|-----|---7-|-----|-------|

G|-----|-----|-----|-------|-----|-----|-----|-------|
D|-7---|-----|-----|-------|-----|-----|-----|-----4-|
A|-----|---7-|-----|-0-2-4-|-5---|-----|-5---|-5-7---|
E|-----|-----|-5---|-------|-----|---5-|-----|-------|

  Chorus
  00:43, 01:42, 02:21
G|-------|-----|-------|-------|-------|-----|-------|-------|-------|
D|-5-5---|-----|-5-5---|---5-6-|-7-7---|-----|-7-7---|---5-4-|-2-2---|
A|-------|---5-|-------|-------|-------|---7-|-------|-------|-------|
E|-------|-----|-------|-------|-------|-----|-------|-------|-------|

G|-------|-------|-------|-------|-------|-------|
D|-------|-------|-------|-------|-------|-------|
A|-------|-------|-------|-5-5---|---5-6-|-7-7---|
E|---0-2-|-3-3---|---5-7-|-------|-------|-------|

  Verse
  02:00, 02:59
G|-------|-----|-------|-----|-----|-----|-------|-----|-----|
D|-------|-----|-------|-----|-----|-----|-------|-----|-----|
A|-------|-----|-------|-----|-----|-2---|-2-----|-2---|-2---|
E|-0-2-4-|-5---|-5---0-|-5---|-5---|-----|-----2-|-----|-----|

G|-----|-------|-----|-------|-----|-------|-----|
D|-2---|-2-----|-2---|-------|-----|-------|-----|
A|-----|-----2-|-----|-------|-----|-------|-----|
E|-----|-------|-----|-0-2-4-|-5---|-5---0-|-5---|


============================================================================
comments
print report bad tab
I want to post or [tab]
guest
You may want to rate the tab now too:
select rating
Please do not post tabs as comments. Select "correction" instead!