Oops, an error
Loading. Please wait.

Happy Xmas War Is Over Tab

version 2
version 2

Whole song

Interactive

23,515 views 12 this week
1 commentread comment
1 2 3 4 5
excellent!
x 6
add to favorites
launch autoscroll
font size
0
reset
how to read this tab
guitar tuner
Tab Pro tools
  • play this tab
  • loop segment
  • change instrument
  • show fretboard
  • metronome
Autoscroll
slow
fast
+/-
esc
set tempo
stop
Contributor
Happy X-mas War Is Over - John Lennon

Here is the song as me and my guitar teacher played it on concert, the chords are 
right but we got a lead and a rhythm (chords).


Lead guitar
e|---------------------------------------------------------------|
B|-------0--2----------------------------------------------0--2--|
G|----2--------2----------------------------------------2--------|
D|-2--------------2----------------------------------2-----------|
A|---------------------------------------------------------------|
E|---------------------------------------------------------------|
Rhythm guitar
e|------------0---0-0-0-0--0---0-0-0-0--0---0-0-0-0--0---0-0-0-0-|
B|------------2---2-2-2-2--0---0-0-0-0--3---3-3-3-3--2---2-2-2-2-|
G|------------2---2-2-2-2--2---2-2-2-2--2---2-2-2-2--2---2-2-2-2-|
D|------------2---2-2-2-2--2---2-2-2-2--2---2-2-2-2--2---2-2-2-2-|
A|------------0---0-0-0-0--0---0-0-0-0--0---0-0-0-0--0---0-0-0-0-|
E|---------------------------------------------------------------|


Lead guitar
e|----------------------------------------------------|
B|-0---------------------------------------------2--3-|
G|--------------------------------------------4-------|
D|-----------------------------------------4----------|
A|----------------------------------------------------|
E|----------------------------------------------------|

Rhythm guitar
e|-2---2-2-2-2--2---2-2-2-2--2---2-2-2-2--2---2-2-2-2-|
B|-3---3-3-3-3--2---2-2-2-2--5---5-5-5-5--3---3-3-3-3-|
G|-4---4-4-4-4--4---4-4-4-4--2---2-2-2-2--4---4-4-4-4-|
D|-4---4-4-4-4--4---4-4-4-4--4---4-4-4-4--4---4-4-4-4-|
A|-2---2-2-2-2--2---2-2-2-2--2---2-2-2-2--2---2-2-2-2-|
E|----------------------------------------------------|


Lead guitar
e|----------------------------------------------------|
B|-2--------------------------------------------------|
G|----4------------------------------------4--4--2--1-|
D|----------------------------------------------------|
A|----------------------------------------------------|
E|----------------------------------------------------|

Rhythm guitar
e|-0---0-0-0-0--0---0-0-0-0--0---0-0-0-0--0---0-0-0-0-|
B|-0---0-0-0-0--0---0-0-0-0--0---0-0-0-0--0---0-0-0-0-|
G|-2---2-2-2-2--1---1-1-1-1--1---1-1-1-1--1---1-1-1-1-|
D|-2---2-2-2-2--2---2-2-2-2--4---4-4-4-4--2---2-2-2-2-|
A|-2---2-2-2-2--2---2-2-2-2--2---2-2-2-2--2---2-2-2-2-|
E|-0---0-0-0-0--0---0-0-0-0--0---0-0-0-0--0---0-0-0-0-|


Lead guitar
e|--------------------------------------------2--2--2-|
B|----------------------------------------------------|
G|-1---------------------------------------2----------|
D|----------------------------------------------------|
A|----------------------------------------------------|
E|----------------------------------------------------|

Rhythm guitar
e|-0---0-0-0-0--0---0-0-0-0--0---0-0-0-0--0---0-0-0-0-|
B|-2---2-2-2-2--0---0-0-0-0--3---3-3-3-3--2---2-2-2-2-|
G|-2---2-2-2-2--2---2-2-2-2--2---2-2-2-2--2---2-2-2-2-|
D|-2---2-2-2-2--2---2-2-2-2--2---2-2-2-2--2---2-2-2-2-|
A|-0---0-0-0-0--0---0-0-0-0--0---0-0-0-0--0---0-0-0-0-|
E|----------------------------------------------------|


Lead guitar
e|-0---------------------------------------------0--2-|
B|---3-------------------------------------3--3-------|
G|----------------------------------------------------|
D|----------------------------------------------------|
A|----------------------------------------------------|
E|----------------------------------------------------|

Rhythm guitar
e|-2---2-2-2-2--0---0-0-0-0--3---3-3-3-3--2---2-2-2-2-|
B|-3---3-3-3-3--3---3-3-3-3--3---3-3-3-3--3---3-3-3-3-|
G|-2---2-2-2-2--2---2-2-2-2--2---2-2-2-2--2---2-2-2-2-|
D|-0---0-0-0-0--0---0-0-0-0--0---0-0-0-0--0---0-0-0-0-|
A|----------------------------------------------------|
E|----------------------------------------------------|


Lead guitar
e|-0--------------------------------------0--0--2--3--|
B|----------------------------------------------------|
G|----------------------------------------------------|
D|----------------------------------------------------|
A|----------------------------------------------------|
E|----------------------------------------------------|

Rhythm guitar
e|-7---7-7-7-7--7---7-7-7-7--7---7-7-7-7--7---7-7-7-7-|
B|-8---8-8-8-8--7---7-7-7-7-10---10101010-8---8-8-8-8-|
G|-9---9-9-9-9--9---9-9-9-9--7---7-7-7-7--9---9-9-9-9-|
D|-9---9-9-9-9--9---9-9-9-9--9---9-9-9-9--9---9-9-9-9-|
A|-7---7-7-7-7--7---7-7-7-7--7---7-7-7-7--7---7-7-7-7-|
E|----------------------------------------------------|


Lead guitar
e|-2--0------------------------------------0--0-------|
B|-----------------------------------------------3--2-|
G|----------------------------------------------------|
D|----------------------------------------------------|
A|----------------------------------------------------|
E|----------------------------------------------------|

Rhythm guitar
e|-0---0-0-0-0--0---0-0-0-0--0---0-0-0-0--0---0-0-0-0-|
B|-3---3-3-3-3--2---2-2-2-2--0---0-0-0-0--2---2-2-2-2-|
G|-2---2-2-2-2--2---2-2-2-2--2---2-2-2-2--2---2-2-2-2-|
D|-2---2-2-2-2--2---2-2-2-2--2---2-2-2-2--2---2-2-2-2-|
A|-0---0-0-0-0--0---0-0-0-0--0---0-0-0-0--0---0-0-0-0-|
E|----------------------------------------------------|


Lead guitar
e|-------------------------------------------/7--7--7-|
B|-3--------------------------------------3-----------|
G|----------------------------------------------------|
D|----------------------------------------------------|
A|----------------------------------------------------|
E|----------------------------------------------------|

Rhythm guitar
e|-2---2-2-2-2--0---0-0-0-0--3---3-3-3-3--2---2-2-2-2-|
B|-3---3-3-3-3--3---3-3-3-3--3---3-3-3-3--3---3-3-3-3-|
G|-2---2-2-2-2--2---2-2-2-2--2---2-2-2-2--2---2-2-2-2-|
D|-0---0-0-0-0--0---0-0-0-0--0---0-0-0-0--0---0-0-0-0-|
A|----------------------------------------------------|
E|----------------------------------------------------|


Lead guitar
e|-5---------------------------------------------5--7-|
B|----8------------------------------------8--8-------|
G|----------------------------------------------------|
D|----------------------------------------------------|
A|----------------------------------------------------|
E|----------------------------------------------------|

Rhythm guitar
e|-3---3-3-3-3--3---3-3-3-3--3---3-3-3-3--3---3-3-3-3-|
B|-0---0-0-0-0--0---0-0-0-0--0---0-0-0-0--0---0-0-0-0-|
G|-0---0-0-0-0--0---0-0-0-0--0---0-0-0-0--0---0-0-0-0-|
D|-0---0-0-0-0--0---0-0-0-0--0---0-0-0-0--0---0-0-0-0-|
A|-2---2-2-2-2--2---2-2-2-2--2---2-2-2-2--2---2-2-2-2-|
E|-3---3-3-3-3--3---3-3-3-3--3---3-3-3-3--3---3-3-3-3-|


Lead guitar
e|-5--------------------------------------5--5--3--2--|
B|----------------------------------------------------|
G|----------------------------------------------------|
D|----------------------------------------------------|
A|----------------------------------------------------|
E|----------------------------------------------------|

Rhythm guitar
e|-0---0-0-0-0--0---0-0-0-0--0---0-0-0-0--0---0-0-0-0-|
B|-2---2-2-2-2--2---2-2-2-2--2---2-2-2-2--2---2-2-2-2-|
G|-2---2-2-2-2--2---2-2-2-2--0---0-0-0-0--0---0-0-0-0-|
D|-2---2-2-2-2--2---2-2-2-2--2---2-2-2-2--2---2-2-2-2-|
A|-0---0-0-0-0--0---0-0-0-0--0---0-0-0-0--0---0-0-0-0-|
E|----------------------------------------------------|


Lead guitar
e|-0--------------------------------------0--0--------|
B|----------------------------------------------3--2--|
G|----------------------------------------------------|
D|----------------------------------------------------|
A|----------------------------------------------------|
E|----------------------------------------------------|

Rhythm guitar
e|-0---0-0-0-0--0---0-0------3---3-3-3-3--3---3-3-3-3-|
B|-0---0-0-0-0--0---0-0------0---0-0-0-0--0---0-0-0-0-|
G|-0---0-0-0-0--0---0-0------0---0-0-0-0--0---0-0-0-0-|
D|-2---2-2-2-2--2---2-2------0---0-0-0-0--0---0-0-0-0-|
A|-2---2-2-2-2--2---2-2------2---2-2-2-2--2---2-2-2-2-|
E|-0---0-0-0-0--0---0-0--0-2-3---3-3-3-3--3---3-3-3-3-|


Lead guitar
e|----------------------------------------------------|
B|-3--------------------------------------------------|
G|----------------------------------------------------|
D|----------------------------------------------------|
A|----------------------------------------------------|
E|----------------------------------------------------|

Rhythm guitar
e|-2---2-2-2-2--2---2-2-2-2--0---0-0-0-0--0---0-0-0-0-|
B|-3---3-3-3-3--3---3-3-3-3--0---0-0-0-0--0---0-0-0-0-|
G|-2---2-2-2-2--2---2-2-2-2--1---1-1-1-1--1---1-1-1-1-|
D|-0---0-0-0-0--0---0-0-0-0--2---2-2-2-2--2---2-2-2-2-|
A|---------------------------2---2-2-2-2--2---2-2-2-2-|
E|---------------------------0---0-0-0-0--0---0-0-0-0-|

You just repeat this order of chords few times but the lead isnt necessary


Key:
/ = slide up





Enjoy!


comments
print report bad tab
1 comment total.
0 reply
PlayforHim813 wrote on December 24 2010, 10:41 am

Lyrics would be lovely.
Other than that, this seems fine :)

I want to post or [tab]
guest
You may want to rate the tab now too:
select rating
Please do not post tabs as comments. Select "correction" instead!