Oops, an error
Loading. Please wait.
We have Chord Pro version of Happy Xmas War Is Over.
It's the closest thing you can get to the original song and it has interactive parts. Check out the tab »
×

Happy Xmas War Is Over bass

1,279 views 3 this week
no commentswrite comment
1 2 3 4 5
1 last vote to show rating
add to favorites
×
Save as Personal and add changes to this tab that will be seen only by you. Learn more ›
×
You can save this tab as Personal to edit and correct it or add notes. All changes will be seen only by you. Learn more »
launch autoscroll
font size
0
reset
guitar tuner
backing track
0:00
0:00
edit
Autoscroll
slow
fast
+/-
esc
set tempo
stop
About this tab version
Notes spaced intentionally to match up with lyrics. Was this info helpful? Yes No
-------------------------------------------------------------------------------
                   HAPPY XMAS (WAR IS OVER) - John Lennon
-------------------------------------------------------------------------------
Tabbed by: Hanoihancock
Tuning: Standard tuning (EADG)

Intro Verse (No Bass)
So this is Christmas...and what have you done?...another year over...,and a 
new one just begun.

Verse
And so this is Christmas...I hope you have fun...The near and the dear ones
G|---------------------------------------------------------------------------|
D|----------------------------------------------------------------4----7----7|
A|----------4--5-------5----------5----6---7-----7------------7-----------7--|
E|--5--7-------------5-------------------------7-----------------------------|

The old and the young
G|-----------------------|
D|-----------------------|
A|----------4---5------5-|
E|--5--7-------------5---|

Chorus
A very Merry Christmas... And a happy New Year...Let's hope it's a good one
G|---------------------------------------------------------------------------|
D|---------------------------------------------------------------------------|
A|-5-7-9-----10-----10-------------10-11--12----12----------10---9-7----9-10-|
E|---------------10--------------------------12------------------------------|

 Without any fear
G|---------------------------------------------------|
D|---------------------------------------------------|
A|--10-------5----6-7--------------------------------|
E|-------------------------5--(hold into next verse)-|

Verse (No Bass)
And so this is Christmas..For weak and for strong..The rich and the poor ones
The world is so wrong

Verse
And so Happy Christmas...For black and for white...For yellow and red ones
G|---------------------------------------------------------------------------|
D|----------------------------------------------------------------4----7----7|
A|----------4--5-------5----------5----6---7-----7------------7-----------7--|
E|--5--7-------------5-------------------------7-----------------------------|

Let's stop all the fight
G|-----------------------|
D|-----------------------|
A|----------4---5------5-|
E|--5--7-------------5---|

Chorus
A very Merry Christmas... And a happy New Year...Let's hope it's a good one
G|---------------------------------------------------------------------------|
D|---------------------------------------------------------------------------|
A|-5-7-9-----10-----10-------------10-11--12----12----------10---9-7----9-10-|
E|---------------10--------------------------12------------------------------|

 Without any fear
G|--------------------|
D|--------------------|
A|--10-------5----6-7-|
E|--------------------|

Verse
And so this is Christmas...And what have we done...Another year over
G|---------------------------------------------------------------------------|
D|--------------------7--------7------------------9-9------------------------|
A|--7--5----4------/7--------------------------/9---------------7-----7------|
E|-------------5-5---------------------------7----------------------7--------|

 A new one just begun
G|-----------------------|
D|-----------------------|
A|-7---9---11---12----12-|
E|-----------------12----|

And so happy Christmas...We hope you have fun...The near and the dear ones
G|---------------------------------------------------------------------------|
D|---------------------------------------------------------------------------|
A|----------4--5-------5----------5----6---7-----7----7--5---7---------------|
E|--5--7-------------5-------------------------7-----------------5-------0-5-|

The old and the young
G|-----------------------|
D|-----------------------|
A|----------4---5------5-|
E|------7-------------5--|

A very Merry Christmas... And a happy New Year...Let's hope it's a good one
G|---------------------------------------------------------------------------|
D|---------------------------------------------------------------------------|
A|-5-7-9-----10-----10-------------10-11--12----12----------10---9-7----9-10-|
E|---------------10--------------------------12------------------------------|

 Without any fear
G|--------------------|
D|--------------------|
A|--10-------5----6-7-|
E|--------------------|

Outro
War is over...if you want it....war is over now
G|---------------------------------------------|
D|-------7-------------9-----------------------|
A|-----/7------------/9---------7--(Fade out)--|
E|-5----------7--------------------------------|


| /  slide up
| \  slide down
| h  hammer-on
| p  pull-off
| ~  vibrato
| +  harmonic
| x  Mute note
===============================================================================

            
            
Suggest correction
Creating personal tab
Creating personal tab
You can edit any tab online and save it as your Personal.

You can edit, replace or remove any tab part or add personal notes – all changes will be seen only by you.

Personal tabs can be accessed anytime from any device, even offline.
Learn more »
Give kudos to tab author, rate the tab!
1 2 3 4 5
comments
print report bad tab
guest
You may want to rate the tab now too:
select rating
Wanna post a correction for this tab? Suggest correction