Oops, an error
Loading. Please wait.

Imagine Tab

version 1
234,258 views 75 this week
4 commentsread comments
1 2 3 4 5
x 13
add to favorites
launch autoscroll
font size
0
reset
how to read this tab
guitar tuner
backing track
0:00
0:00
×
Best way to learn
"Imagine"
Autoscroll
slow
fast
+/-
esc
set tempo
stop
[1]

e|-----------------------------------|--------------------------------||
B|----------------------------0------|-----------------------------0--||
G|----0-------0-------0-------0------|-2-------2-------2-------2-3----||
D|----2-------2-------2--------------|-3-------3-------3--------------||
A|--------3-------3-------3-------3--|-----3-------3-------3----------||
E|----3-------3-------3-------3------|-1-------1-------1--------------||(x2)
     C                       Cmaj7    F            


[2]

e|-----------------------------------|--------------------------------||
B|----------------------------0------|-----------------------------0--||
G|----0-------0-------0-------0------|-2-------2-------2-------2-3----||
D|----2-------2-------2--------------|-3-------3-------3--------------||
A|--------3-------3-------3-------3--|-----3-------3-------3----------||
E|----3-------3-------3-------3------|-1-------1-------1--------------||(x3)
     C                       Cmaj7    F            


e|-----------------------------------|--------------------------------|
B|----------------------------0------|--------------------------------|
G|----0-------0-------0-------0------|-2-------2-------2-------2------|
D|----2-------2-------2--------------|-3-------3-------3-------3------|
A|--------3-------3-------3-------3--|-----3-------3-------3-------3--|
E|----3-------3-------3-------3------|-1-------1-------1-------1------|
     C                       Cmaj7    F


e|------------1---------------0------|---------1---------------1------|
B|------------1---------------1------|---------3---------------3------|
G|------------2-----------2----------|-----2-------------------2------|
D|----------------3---2-----------2--|-0-----------0-------0----------|
A|--------3--------------------------|-----------------3-----------3--|
E|----1------------------------------|--------------------------------|
     F               Am               Dm


e|------------3---------------3------|-1-------------------------------|
B|------------0---------------3------|-3-------------------------------|
G|------------0---------------0------|---------------------------------|
D|--------0---------------0----------|---------------------------------|
A|----2---------------2--------------|---------------------------------|
E|-----------------------------------|---------------------------------|
     G                                G7


[3]

e|-----------------------------------|---------0---------------0-------||
B|------------1---------------0------|---------1---------------3-------||
G|------------2---------------0------|---------0---------------1-------||
D|------------3---------------0------|-----2---------------2-----------||
A|--------3---------------2----------|-3-----------3---2---------------||
E|----1-----------1---3-----------3--|------------------------------0--||(x3)
     F               G                C               Eadd4
                                             __________________________
                                            | 1st time only
e|-----------------------------------|-0-------------------------------|
B|------------1---------------0------|-1-------------------------------|
G|------------2---------------0------|-0-----------0-------0-------0---|
D|------------3---------------0------|-2-------------------------------|
A|--------3---------------2----------|-3---------------0-------2-------|
E|----1-----------1---3-----------3--|---------3-----------------------|
      F               G                C

Play as : (1) , (2)x2 , (3) , (2) , (3)
(I think)
Suggest correction
comments
print report bad tab
4 comments total. Showing first comments.
0 reply
KA//E 0 Jan 30, 2002 07:00 PM

This tab is so right! Im not so sure about the open b, on the first verse though. It sounds like it just goes back to the main chords.

0 reply
KA//E 0 Feb 05, 2002 07:00 PM

The piano tap that he does after the first set of chords....there is something missing

0 reply
Trunx 1,370 Aug 02, 2006 11:44 AM

But really good still!!!

guest
You may want to rate the tab now too:
select rating
Wanna post a correction for this tab? Suggest correction