Oops, an error
Loading. Please wait.

Imagine Bass Tab

version 2
9,353 views 12 this week
no commentswrite comment
1 2 3 4 5
please rate
add to favorites
launch autoscroll
font size
0
reset
guitar tuner
Tab Pro tools
  • play this tab
  • loop segment
  • change instrument
  • show fretboard
  • metronome
×
Best way to learn
"Imagine"
Autoscroll
slow
fast
+/-
esc
set tempo
stop
Contributor
IMAGINE

John Lennon

INTRO

G|---------------------------------|---------------------------------|
D|---------------------------------|---------------------------------|
A|---------------------------------|---------------------------------|
E|---------------------------------|---------------------------------|

G|---------------------------------|---------------------------------|
D|---------------------------------|---------------------------------|
A|---------------------------------|---------------------------------|
E|---------------------------------|---------------------------------|

VERSE

G|---------------------------------|---------------------------------|
D|---------------------------------|---------------------------------|
A|---------------------------------|---------------------------------|
E|---------------------------------|---------------------------------|

G|---------------------------------|---------------------------------|
D|---------------------------------|---------------------------------|
A|---------------------------------|---------------------------------|
E|---------------------------------|---------------------------------|

G|---------------------------------|---------------------------------|
D|---------------------------------|---------------------------------|
A|---------------------------------|---------------------------------|
E|---------------------------------|---------------------------------|

G|---------------------------------|---------------------------------|
D|---------------------------------|---------------------------------|
A|---------------------------------|---------------------------------|
E|---------------------------------|---------------------------------|

CHORUS

G|---------------------------------|---------------------------------|
D|-3---------------2---------------|-0-------------------------------|
A|---------------------------------|-----------------3---------------|
E|---------------------------------|---------------------------------|

G|---------------------------------|---------------------------------|
D|---------------------------------|---------------------------------|
A|---------------------------------|/10------------------------------|
E|-3-------------------------------|---------------------------------|

VERSE

G|---------------------------------|---------------------------------|
D|---------------------------------|---------------------------------|
A|-3-------------------------------|---------------------------------|
E|---------------------------------|-1-------------------------------|

G|---------------------------------|---------------------------------|
D|---------------------------------|---------------------------------|
A|-3-------------------------------|---------------------------------|
E|---------------------------------|-1-------------------------------|

G|---------------------------------|---------------------------------|
D|---------------------------------|---------------------------------|
A|-3-------------------------------|---------------------------------|
E|---------------------------------|-1-------------------------------|

G|---------------------------------|---------------------------------|
D|---------------------------------|---------------------------------|
A|-3-------------------------------|---------------------------------|
E|---------------------------------|-1-------------------------------|

CHORUS

G|---------------------------------|---------------------------------|
D|-3---------------2---------------|-0-------------------------------|
A|---------------------------------|-----------------3---------------|
E|---------------------------------|---------------------------------|

G|---------------------------------|---------------------------------|
D|---------------------------------|---------------------------------|
A|---------------------------------|/10------------------------------|
E|-3-------------------------------|---------------------------------|


BRIDGE

G|---------------------------------|---------------------------------|
D|---------------------------------|-----------------2---------------|
A|---------------------------------|-3-------------------------------|
E|-1---------------3---------------|---------------------------------|

G|---------------------------------|---------------------------------|
D|---------------------------------|-----------------2---------------|
A|---------------------------------|-3-------------------------------|
E|-1---------------3---------------|---------------------------------|

G|---------------------------------|---------------------------------|
D|---------------------------------|-----------------2---------------|
A|---------------------------------|-3-------------------------------|
E|-1---------------3---------------|---------------------------------|

G|---------------------------------|---------------------------------|
D|---------------------------------|---------------------------------|
A|---------------------------------|-3-------------------------------|
E|-1---------------3---------------|---------------------------------|

VERSE

G|---------------------------------|---------------------------------|
D|---------------------------------|---------------------------------|
A|-3-------------------------------|---------------------------------|
E|---------------------------------|-1-------------------------------|

G|---------------------------------|---------------------------------|
D|---------------------------------|---------------------------------|
A|-3-------------------------------|---------------------------------|
E|---------------------------------|-1-------------------------------|

G|---------------------------------|---------------------------------|
D|---------------------------------|---------------------------------|
A|-3-------------------------------|---------------------------------|
E|---------------------------------|-1-------------------------------|

G|---------------------------------|---------------------------------|
D|---------------------------------|---------------------------------|
A|-3-------------------------------|---------------------------------|
E|---------------------------------|-1-------------------------------|

CHORUS

G|---------------------------------|---------------------------------|
D|-3---------------2---------------|-0-------------------------------|
A|---------------------------------|-----------------3---------------|
E|---------------------------------|---------------------------------|

G|---------------------------------|---------------------------------|
D|---------------------------------|---------------------------------|
A|---------------------------------|/10------------------------------|
E|-3-------------------------------|---------------------------------|

BRIDGE

G|---------------------------------|---------------------------------|
D|---------------------------------|-----------------2---------------|
A|---------------------------------|-3-------------------------------|
E|-1---------------3---------------|---------------------------------|

G|---------------------------------|---------------------------------|
D|---------------------------------|-----------------2---------------|
A|---------------------------------|-3-------------------------------|
E|-1---------------3---------------|---------------------------------|

G|---------------------------------|---------------------------------|
D|---------------------------------|-----------------2---------------|
A|---------------------------------|-3-------------------------------|
E|-1---------------3---------------|---------------------------------|

G|---------------------------------|---------------------------------|
D|---------------------------------|---------------------------------|
A|---------------------------------|-3-------------------------------|
E|-1---------------3---------------|---------------------------------|
comments
We did not receive enough feedback on this tab! Please rate:
print report bad tab
1 2 3 4 5
I want to post or [tab]
guest
You may want to rate the tab now too:
select rating
Please do not post tabs as comments. Select "correction" instead!