Oops, an error
Loading. Please wait.

Imagine Bass Tab

version 3
3,324 views 6 this week
2 commentsread comments
1 2 3 4 5
please rate
add to favorites
launch autoscroll
font size
0
reset
guitar tuner
Autoscroll
slow
fast
+/-
esc
set tempo
stop
Help us to improve Ultimate-Guitar.com Take our survey!
×
g-0---0---0---0--|-2---2---2---2---|
d----------------|-----------------| x2, the intro
a---3---3---3---3|---3---3---3---3-|
e----------------|-----------------|

|:g-0---0---0---0--|-2---2---2---2---|
|:d----------------|-----------------| x4, the verse
|:a---3---3---3---3|---3---3---3---3-|
|:e----------------|-----------------|

g-5---5-----5---5|---2---2---2---2-|------------|--------|------------------| the refrain,then
d---3---3-2---2--|-0---0-----------|-0--0--0--2-|3-------|------------------| repeat from the
a----------------|---------3---3---|------------|--------|:| verse and con--|
e----------------|-----------------|------------|--------|------------------| tinue to bridge

g-5---5---7---7---|-0---0---4---4---|
d---3---3---5---5-|---3---3---2---2-| x3, the bridge
a-----------------|-----------------|
e-----------------|-----------------|

g-5---5---7---7---|-0---0-----------| now, play the whole song through again
d---3---3---5---5-|---3---3---------| but do not repeat when said at the
a-----------------|-----------------| first time you play
e-----------------|----------8hold--|


note that this is my way to play it, as I think it is.
Suggest correction
Give kudos to tab author, rate the tab!
1 2 3 4 5
comments
print report bad tab
2 comments total.
0 reply
Helgonförklarad 50 wrote on March 24 2009, 04:17 pm

Something must have went wrong with the publishing. While said Refrain, there should be repeat-marks. After the refrain, replay from the beginning.

0 reply
vostelaperdes 52 wrote on August 20 2010, 07:15 pm

that's not the way the bass goes at all

guest
You may want to rate the tab now too:
select rating
Please do not post tabs as comments. Select "correction" instead!