Oops, an error
Loading. Please wait.
We have an official Imagine tab made by UG professional guitarists. Check out the tab »
×

Imagine Acoustic tab

version 5
version 5

Whole song

3,481 views 42 this week
no commentswrite comment
1 2 3 4 5
x 5
add to favorites
×
Save as Personal and add changes to this tab that will be seen only by you. Learn more ›
×
You can save this tab as Personal to edit and correct it or add notes. All changes will be seen only by you. Learn more »
launch autoscroll
font size
0
reset
how to read this tab
guitar tuner
backing track
0:00
0:00
edit
Autoscroll
slow
fast
+/-
esc
set tempo
stop
Author
Difficulty
John Lennon - Imagine
From the album: Imagine (1971)
Comment for any corrections and please rate

Hi guys, this is the acoustic tab for Imagine,
This version isn't the same as the piano on the original song,
But it sounds great if you want to sing along.


Imagine there's no heaven, it's easy if you try
   C       Cmaj7   F               C       Cmaj7   F
e|-------------------------1-------------------------------1--------|
B|-1-----1-0-----0-1-----1---1---1-1-----1-0-----0-1-----1---1---1--|
G|-----0-------0-------2-------2-------0-------0-------2-------2----|
D|---2-------2-------3---------------2-------2-------3--------------|
A|-3-------3-----------------------3-------3------------------------|
E|-----------------1-------------------------------1----------------|

No hell below us, above us only sky
   C       Cmaj7   F               C       Cmaj7   F
e|-------------------------1-------------------------------1--------|
B|-1-----1-0-----0-1-----1---1---1-1-----1-0-----0-1-----1---1---1--|
G|-----0-------0-------2-------2-------0-------0-------2-------2----|
D|---2-------2-------3---------------2-------2-------3--------------|
A|-3-------3-----------------------3-------3------------------------|
E|-----------------1-------------------------------1----------------|

Imagine all the people living for today
   F       Am      Dm      Dm/C    G               G7
e|-----------------1-----1-1-----------------3------1-------1----0--|
B|-1-----1-1-----1-----3--------0----0-----0------0-------0---------|
G|-----2-------2-----2-------------------0--------------0-----------|
D|---3-------2-----0-------------------0--------------0-------------|
A|---------0---------------3----------------------------------------|
E|-1---------------------------------3--------------3---------------|

Imagine there's no countries, it isn't hard to do
   C       Cmaj7   F               C       Cmaj7   F
e|-------------------------1-------------------------------1--------|
B|-1-----1-0-----0-1-----1---1---1-1-----1-0-----0-1-----1---1---1--|
G|-----0-------0-------2-------2-------0-------0-------2-------2----|
D|---2-------2-------3---------------2-------2-------3--------------|
A|-3-------3-----------------------3-------3------------------------|
E|-----------------1-------------------------------1----------------|

Nothing to kill or die for and no religion to
   C       Cmaj7   F               C       Cmaj7   F
e|-------------------------1-------------------------------1--------|
B|-1-----1-0-----0-1-----1---1---1-1-----1-0-----0-1-----1---1---1--|
G|-----0-------0-------2-------2-------0-------0-------2-------2----|
D|---2-------2-------3---------------2-------2-------3--------------|
A|-3-------3-----------------------3-------3------------------------|
E|-----------------1-------------------------------1----------------|

Imagine all the people living life in peace
   F       Am      Dm      Dm/C    G               G7
e|-----------------1-----1-1-----------------3------1-------1----0--|
B|-1-----1-1-----1-----3--------0----0-----0------0-------0---------|
G|-----2-------2-----2-------------------0--------------0-----------|
D|---3-------2-----0-------------------0--------------0-------------|
A|---------0---------------3----------------------------------------|
E|-1---------------------------------3--------------3---------------|

You may say that I'm a dreamer but I'm not the only one
   F       G       C   C/B C/A     F       G       C       E7
e|---------------------------------------------------------------0--|
B|-1-----1-3-----3-1---1---1-----1-1-----1-3-----3-1-----1-0--------|
G|-----2-------4---------------0-------2-------4-------0-------1----|
D|---3-------5-------2---2---2-------3-------5-------2-------0------|
A|-----------------3---2---0-----------------------3----------------|
E|-1-------3-----------------------1-------3---------------0--------|

I hope someday you'll join us and the world will be as one
   F       G       C   C/B C/A     F       G       C       
e|------------------------------------------------------------------|
B|-1-----1-3-----3-1---1---1-----1-1-----1-3-----3-1----------------|
G|-----2-------4---------------0-------2-------4--------------------|
D|---3-------5-------2---2---2-------3-------5----------------------|
A|-----------------3---2---0-----------------------3----------------|
E|-1-------3-----------------------1-------3------------------------|

Imagine no possessions, I wonder if you can
   C       Cmaj7   F               C       Cmaj7   F
e|-------------------------1-------------------------------1--------|
B|-1-----1-0-----0-1-----1---1---1-1-----1-0-----0-1-----1---1---1--|
G|-----0-------0-------2-------2-------0-------0-------2-------2----|
D|---2-------2-------3---------------2-------2-------3--------------|
A|-3-------3-----------------------3-------3------------------------|
E|-----------------1-------------------------------1----------------|

No need for greed or hunger, a brotherhood of man
   C       Cmaj7   F               C       Cmaj7   F
e|-------------------------1-------------------------------1--------|
B|-1-----1-0-----0-1-----1---1---1-1-----1-0-----0-1-----1---1---1--|
G|-----0-------0-------2-------2-------0-------0-------2-------2----|
D|---2-------2-------3---------------2-------2-------3--------------|
A|-3-------3-----------------------3-------3------------------------|
E|-----------------1-------------------------------1----------------|

Imagine all the people sharing all the world
   F       Am      Dm      Dm/C    G               G7
e|-----------------1-----1-1-----------------3------1-------1----0--|
B|-1-----1-1-----1-----3--------0----0-----0------0-------0---------|
G|-----2-------2-----2-------------------0--------------0-----------|
D|---3-------2-----0-------------------0--------------0-------------|
A|---------0---------------3----------------------------------------|
E|-1---------------------------------3--------------3---------------|

You may say that I'm a dreamer but I'm not the only one
   F       G       C   C/B C/A     F       G       C       E7
e|---------------------------------------------------------------0--|
B|-1-----1-3-----3-1---1---1-----1-1-----1-3-----3-1-----1-0--------|
G|-----2-------4---------------0-------2-------4-------0-------1----|
D|---3-------5-------2---2---2-------3-------5-------2-------0------|
A|-----------------3---2---0-----------------------3----------------|
E|-1-------3-----------------------1-------3---------------0--------|

I hope someday you'll join us and the world will be as one
   F       G       C   C/B C/A     F       G       C       
e|------------------------------------------------------------------|
B|-1-----1-3-----3-1---1---1-----1-1-----1-3-----3-1----------------|
G|-----2-------4---------------0-------2-------4--------------------|
D|---3-------5-------2---2---2-------3-------5----------------------|
A|-----------------3---2---0-----------------------3----------------|
E|-1-------3-----------------------1-------3------------------------|

            
            
Suggest correction
Creating personal tab
Creating personal tab
You can edit any tab online and save it as your Personal.

You can edit, replace or remove any tab part or add personal notes – all changes will be seen only by you.

Personal tabs can be accessed anytime from any device, even offline.
Learn more »
comments
print report bad tab
guest
You may want to rate the tab now too:
select rating
Wanna post a correction for this tab? Suggest correction