Oops, an error
Loading. Please wait.

Isolation Bass Tab

version 1
version 1

Whole song

Interactive

922 views 1 this week
no commentswrite comment
1 2 3 4 5
please rate
add to favorites
launch autoscroll
font size
0
reset
guitar tuner
Tab Pro tools
  • play this tab
  • loop segment
  • change instrument
  • show fretboard
  • metronome
Autoscroll
slow
fast
+/-
esc
set tempo
stop
Contributor
++++++++++++++++++++++++++
| John Lennon- Isolation |
++++++++++++++++++++++++++



"Just a boy and a little girl trying to change the whole wide world..."



Tuning: EADG


Verse
"People say we got it made..."
1.
G|-------7~----4~----5~------------------------|
D|---------------------------------------------|
A|-5~--------------------------------5~--------|
E|-------------------------3~------------------|

"We're afraid to be alone..."
2.
G|-------------------7~----------------------------|
D|-------8~-----------------5~-----5~--------------|
A|-5~----------5~---------5------5-------5~--------|
E|-------------------------------------------------|

"Just a boy and a little girl..."
3.
G|-----------7---------5~----------------------------|
D|-------8~---8---------------5~-----2-0-------------|
A|-5~----------9-5~---------5------------0-5~--------|
E|---------------------------------------------------|

"The world is just a little down..."
4.
G|-------7~----4~----5~------------------------------|
D|--------------------------5~-------2-0-------------|
A|-5~---------------------5--------------2-0~--------|
E|---------------------------------------------------|

Chorus
"Isolation..."
5.
G|---------------------------------------|
D|---------------------------------------|
A|---------------------5x----------------|
E|-3~---3~---3~---3~---------------------|

Bridge
"I dont expect you..."
6.
G|---------------------------------------------------------------------------------|
D|---------------------------------------------------------------------------------|
A|-5x------0~----------0~--5x------0~----------0~----------0~----------0~----------|
E|-------------3x----------------------3x----------3x----------3x----------3x------|

7.
G|-----------------------------|
D|-----------------------------|
A|-0~--------------------------|
E|-----3-3-3-3-3-3-5-5-5-5-5-5-|

8.
G|-------------4~----7~---------------|
D|-------8~----------------5~---------|
A|-5~---------------------------------|
E|----------------------------------3-|

Verse
"We're afraid of everyone..."
9.
G|-------7~----------7~-------------------------|
D|----------------------------------------------|
A|-5~----------5~---------------------5~--------|
E|-------------------------3~-------3-----------|

"The sun will never disappear..."
10.
G|-----------7---------7~------------------------------|
D|-------8~---8---------------5~---2-0-----------------|
A|-5~----------9-5~---------5----------2-0---0~--------|
E|-----------------------------------------3-----------|

Chorus
"Isolation..."
11.
G|---------------------------------------|
D|---------------------------------------|
A|---------------------5x----------------|
E|-3~---3~---3~---3~---------------------|


Please rate thanks!!


Lyrics:

People say we got it made don't they know we're so afriad
we're afraid to be alone, everbody got to have a home
Just a boy and a little girl
trying to change the whole wide world
The world is just a little town
everybody trying to put us down
Isolation

I don't expect you to understand
after you've caused so much pain
But then again you're not to blame
you're just a human, a victim of the insane

We're afrain of everyone, afraid of the sun
The sun will never disappear
but the world may not have many years
Isolation



+++++++++++++++++++++++++++++++++
| Raileff                       |
| Underground__Dora@Hotmail.Com |
+++++++++++++++++++++++++++++++++
comments
We did not receive enough feedback on this tab! Please rate:
print report bad tab
1 2 3 4 5
I want to post or [tab]
guest
You may want to rate the tab now too:
select rating
Please do not post tabs as comments. Select "correction" instead!