Oops, an error
Loading. Please wait.

Its So Hard Bass Tab

1,745 views 1 this week
no commentswrite comment
1 2 3 4 5
excellent!
x 2
add to favorites
launch autoscroll
font size
0
reset
guitar tuner
Tab Pro tools
  • play this tab
  • loop segment
  • change instrument
  • show fretboard
  • metronome
Autoscroll
slow
fast
+/-
esc
set tempo
stop
Contributor
   -----------------------------------------------------------

    JOHN LENNON - IT'S SO HARD. From IMAGINE album. Released
                  on 8th October 1971.

   -----------------------------------------------------------





    You got to live
    You got to love
    You got to be somebody
    You got to shove
    But it's so hard
    It's really hard
    Sometimes I feel like going down

    You got to eat
    You got to drink
    You got to feel something
    You got to worry
    It's so hard 
    It's really hard
    Sometimes I feel like going down

    But when it's good
    It's really good
    And when I hold you in arms baby
    Sometimes I feel like going down

      SOLO

    You got to run
    You got to hide
    You got to keep your woman satisfied
    But it's so hard
    It's really hard
    sometimes I feel like going down





     INTRO
     00:03

  G|-------------------------------------|-------------------------------------|
  D|-------------------2--------4-----2--|-------------------2--------4-----2--|
  A|-0-----0--4-----0--------0-----------|-0-----0--4-----0--------0-----------|
  E|-------------------------------------|-------------------------------------|





  G|-------------------------------------|-------------------------------------|
  D|-------------------2--------4-----2--|-------------------2--------4-----2--|
  A|-0-----0--4-----0--------0-----------|-0-----0--4-----0--------0-----------|
  E|-------------------------------------|-------------------------------------|





  G|-------------------2--------4-----2--|-------------------2--------4--------|
  D|-0-----0--4-----0--------0-----------|-0-----0--4-----0--------0-----------|
  A|-------------------------------------|-------------------------------4--3--|
  E|-------------------------------------|-------------------------------------|





  G|-------------------------------------|-------------------------------------|
  D|-------------------------------------|-------------------------------2--4--|
  A|-2-----2-----------------------------|-0-----0--0-----0--0-----0--4--------|
  E|----------2-----2--0-----0--0-----0--|-------------------------------------|
                                                                   You   to live
                                                                      got




     VERSE
     00:26

  G|-------------------------------------|-------------------------------------|
  D|-------------------2--------4-----2--|-------------------2--------4-----2--|
  A|-0-----0--4-----0--------0-----------|-0-----0--4-----0--------0-----------|
  E|-------------------------------------|-------------------------------------|
                             you   to love                         you   to be
                                got                                   got




  G|-------------------------------------|-------------------------------------|
  D|-------------------2--------4-----2--|-------------------2--------4-----2--|
  A|-0-----0--4-----0--------0-----------|-0-----0--4-----0--------0-----------|
  E|-------------------------------------|-------------------------------------|
     somebody                   you   to   shove
                                   got




  G|-------------------2--------4-----2--|-------------------2--------4--------|
  D|-0-----0--4-----0--------0-----------|-0-----0--4-----0--------0-----------|
  A|-------------------------------------|-------------------------------4--3--|
  E|-------------------------------------|-------------------------------------|





  G|-------------------------------------|-------------------------------------|
  D|-------------------------------------|-------------------2--------4--------|
  A|-2-----2-----------------------------|-0-----0--4-----0--------0-----0-----|
  E|----------2-----2--0-----0--0-----0--|----------------------------------0--|





     VERSE
     00:49

  G|-------------------------------------|-------------------------------------|
  D|-------------------2--------4-----2--|-------------------2--------4-----2--|
  A|-0-----0--4-----0--------0-----------|-0-----0--4-----0--------0-----------|
  E|-------------------------------------|-------------------------------------|





  G|-------------------------------------|-------------------------------------|
  D|-------------------2--------4-----2--|-------------------2--------4-----2--|
  A|-0-----0--4-----0--------0-----------|-0-----0--4-----0--------0-----------|
  E|-------------------------------------|-------------------------------------|





  G|-------------------2--------4-----2--|-------------------2--------4--------|
  D|-0-----0--4-----0--------0-----------|-0-----0--4-----0--------0-----------|
  A|-------------------------------------|-------------------------------4--3--|
  E|-------------------------------------|-------------------------------------|





  G|-------------------------------------|-------------------------------------|
  D|-------------------------------------|-------------------------------------|
  A|-2-----2-----------------------------|-0-----0--2-----2--3-----3--4-----4--|
  E|----------2-----2--0-----0--0-----0--|-------------------------------------|





     BRIDGE
     01:12

  G|-------------------2--------4-----2--|-------------------2--------4--2-----|
  D|-0-----0--4-----0--------0-----------|-0-----0--4-----0--------0--------4--|
  A|-------------------------------------|-------------------------------------|
  E|-------------------------------------|-------------------------------------|





  G|-------------------2--------4-----2--|-------------------2--------4--------|
  D|-0-----0--4-----0--------0-----------|-0-----0--4-----0--------0-----------|
  A|-------------------------------------|-------------------------------4--3--|
  E|-------------------------------------|-------------------------------------|





  G|-------------------------------------|-------------------------------------|
  D|-------------------------------------|-------------------------------------|
  A|-2-----2-----------------------------|-0-----0--4-----4--5-----5--5--6--7--|
  E|----------2-----2--0-----0--0-----0--|-------------------------------------|





     SOLO
     01:30

  G|-------------------------------------|-------------------------------------|
  D|-------------------2--------4-----2--|-------------------2--------4-----2--|
  A|-0-----0--4-----0--------0-----------|-0-----0--4-----0--------0-----------|
  E|-------------------------------------|-------------------------------------|





  G|-------------------------------------|-------------------------------------|
  D|-------------------2--------4-----2--|-------------------2--------4-----2--|
  A|-0-----0--4-----0--------0-----------|-0-----0--4-----0--------0-----------|
  E|-------------------------------------|-------------------------------------|





  G|-------------------2--------4-----2--|-------------------2--------4--------|
  D|-0-----0--4-----0--------0-----------|-0-----0--4-----0--------0-----------|
  A|-------------------------------------|-------------------------------4--3--|
  E|-------------------------------------|-------------------------------------|





  G|-------------------------------------|-------------------------------------|
  D|-------------------------------------|-------------------------------------|
  A|-2-----2-----------------------------|-0-----0--2-----2--3-----4--5-----7--|
  E|----------2-----2--0-----0--0-----0--|-------------------------------------|





     VERSE
     01:54

  G|-------------------------------------|-------------------------------------|
  D|-------------------2--------4-----2--|-------------------2--------4-----2--|
  A|-0-----0--4-----0--------0-----------|-0-----0--4-----0--------0-----------|
  E|-------------------------------------|-------------------------------------|





  G|-------------------------------------|-------------------------------------|
  D|-------------------2--------4-----2--|-------------------2--------4-----2--|
  A|-0-----0--4-----0--------0-----------|-0-----0--4-----0--------0-----------|
  E|-------------------------------------|-------------------------------------|





  G|-------------------2--------4-----2--|-------------------2--------4--------|
  D|-0-----0--4-----0--------0-----------|-0-----0--4-----0--------0-----------|
  A|-------------------------------------|-------------------------------4--3--|
  E|-------------------------------------|-------------------------------------|





  G|-------------------------------------|-------------------------------------|
  D|-------------------------------------|-------------------2--------2--0-----|
  A|-2-----2-----------------------------|-0-----0--4-----0--------0--------4--|
  E|----------2-----2--0-----0--0-----0--|-------------------------------------|





  G|-------------------------------------|-------------------------------------|
  D|----------4--------2-----------------|-------------------------------------|
  A|-2-----2--------2--------0--1-----0--|-------------------------------------|
  E|-------------------------------------|-------------------------------------|
comments
We did not receive enough feedback on this tab! Please rate:
print report bad tab
1 2 3 4 5
I want to post or [tab]
guest
You may want to rate the tab now too:
select rating
Please do not post tabs as comments. Select "correction" instead!