Oops, an error
Loading. Please wait.

Mother Bass Tab

version 1
version 1

Whole song

Interactive

3,262 views 3 this week
no commentswrite comment
1 2 3 4 5
excellent!
x 4
add to favorites
launch autoscroll
font size
0
reset
guitar tuner
Autoscroll
slow
fast
+/-
esc
set tempo
stop
Help us to improve Ultimate-Guitar.com Take our survey!
×
Author
RaiLeff 12,161
+++++++++++++++++++++++
| John Lennon- Mother |
+++++++++++++++++++++++


"Daddy come home..."


Tuning: EADG


Verse
"Mother you had me..."
1.
G|-----------------------------------------------------------------------|
D|---------5~----------------------------------------------------5~----5-|
A|-3~----3---------3~--------3~----------------3---------------5---------|
E|---------------3---------------------3-1~------1~----1-3~--------------|

"So I, I just gotta tell you..."
2.
G|-------------------------------------------------------------|
D|-------5---------------3~----5-------------------------------|
A|-3~------3~----------3---------3~------------3~----3~--------|
E|---------------1~--------------------3~----3-----------------|

"Father you left me..."
3.
G|-----------------------------------------------------------------------|
D|---------5~--------------------------5-3~----------------------5~----5-|
A|-3~----3---------3~--------3~----------------3---------------5---------|
E|---------------3-------------------------------1~----1-3~--------------|

"So I, I just gotta tell you..."
4.
G|--------------------------------------------------------------|
D|-------5---------------3~----5--------------------------------|
A|-3~------3~----------3---------3~------------3~----33~--------|
E|---------------1~--------------------3~----3------------------|

"Children dont do what..."
5.
G|-----------------------------------------------------------------------|
D|-------2-5~----5---------------------2-3~----2-3~---23-5~------5~----5-|
A|-3~--------------3~--------3~--------------------------------5---------|
E|-------------------------3---------------------------------------------|

"So I, I just gotta tell you..."
6.
G|---------5~-----------------------------------------------------|
D|-------5----5----------------3~----5----------------------------|
A|-3~-----------3~-----------3---------3~-----3---------3~----3~--|
E|-------------------3-1~-------------------3---3~----3-----------|

"Mama dont go..."
7.
G|---------------------------------------------------------------------------------|
D|-3~-2~---------5~------------------------3~-2~---------5~------------------------|
A|-------------5-------------3~------3~----------------5-------------3~------3~----|
E|-------3~------------1~----------3-------------3~------------1~----------3-------|

Please rate thanks!!


Lyrics:

Mother, you had me but I never had you, 
I wanted you but you didn't want me, 
So I got to tell you, 
Goodbye, goodbye. 

Farther, you left me but I never left you, 
I needed you but you didn't need me, 
So I got to tell you, 
Goodbye, goodbye. 

Children, don't do what I have done, 
I couldn't walk and I tried to run, 
So I got to tell you, 
Goodbye, goodbye. 

Mama don't go, 
Daddy come home. 



+++++++++++++++++++++++++++++++++
| Raileff                       |
| Underground__Dora@Hotmail.Com |
+++++++++++++++++++++++++++++++++
Suggest correction new What's this?
You can suggest a correction to this tab. Community and Mods will review your correction and vote to approve or reject it.
comments
print report bad tab
guest
You may want to rate the tab now too:
select rating
Please do not post tabs as comments. Select "correction" instead!