Oops, an error
Loading. Please wait.

New York City Bass Tab

750 views 1 this week
no commentswrite comment
1 2 3 4 5
please rate
add to favorites
launch autoscroll
font size
0
reset
guitar tuner
Autoscroll
slow
fast
+/-
esc
set tempo
stop
Help us to improve Ultimate-Guitar.com Take our survey!
×
Author
     ---------------------------------------------------------------

                       JOHN LENNON - NEW YORK CITY
                               John Lennon
         From SOMETIME IN NEW YORK CITY album. Released on 1972.

     ---------------------------------------------------------------





    Standing on the corner
    Just me and Yoko Ono
    We was waiting for jerry to land
    Up come a man with the guitar in his hand
    Singing "have a marijuana if you can"
    His name was Davis Peel
    And we found that he was real
    He sang "The pope smokes dope everyday"
    Up come a police man shoved us up the street
    Singin', "Power To The People Today!"

    New York City
    New York City
    New York City
    Que pasa New York?
    Que pasa New York?
    Hey, hey

    Well we went to Max's Kansas City
    Got down the nitty gritty
    With the Elephants Memory Band
    Laid something down
    As the news spread around
    About the Plastic Ono Elephants Memory Band!
    Well we played some funky boogie
    And laid some tutti frutti
    Singing "Long tall sally's a man"
    Up come a preachman trying to be a teacher
    Singing "God's a red herring in grag!"

    New York City
    New York City
    New York City
    Que pasa New York?
    Que pasa New York?
    Ah, ha

     (GUITAR SOLO)

    Hey, New York City
    Alright, New York City
    New York City
    Que pasa New York?
    Que pasa New York?

    Well we did the Staten Island Ferry
    Making movies for the telly
    Played the Fillmore and Apollo for freedom
    Tried to shake our image
    Just a cycling through the village
    But found that we had left it back in London
    Well nobody came to bug us,
    Hustle us or shove us
    So we decided to make it our home
    If the man wants to shove us out
    We gonna jump and shout
    The Statue of Liberty said "come!"

    New York City
    New York City
    New York City
    Que pasa New York?
    Que pasa New York?
    Hey, hey

     (PIANO SOLO)

    New York City
    Back in New York City
    Hey, New York City
    Que pasa New York?
    Que pasa New York?

    New York City 
    Down in the village
    What a bad-ass city!
    Que pasa New York?
    Que pasa New York?
    Hey, rock on
    Oh, city
    Yeah
    Que pasa New York?
    Que pasa New York?





     INTRO


  G|---------------------------------|---------------------------------|
  D|---------------------------------|---------------------------------|
  A|-----5---5-------5---------------|-----5---5-------5---------------|
  E|-7-----------7-------------------|-7-----------7---------------0---|





     VERSE


  G|---------------------------------|---------------------------------|
  D|---------------------------------|---------------------------------|
  A|-----------------2---2---4---2---|-----------------2---2---4---2---|
  E|-0---0---0---0-------------------|-0---0---4---4-------------------|





  G|---------------------------------|---------------------------------|
  D|---------------------------------|-----------------4---4---6---4---|
  A|-----------------0---0---1---1---|-2---2---6---6-------------------|
  E|-0---0---4---4-------------------|---------------------------------|





  G|---------------------------------|---------------------------------|
  D|-----------------4---4---6---4---|-----------------4---4---6---4---|
  A|-2---2---6---6-------------------|-2---2---6---6-------------------|
  E|---------------------------------|---------------------------------|





  G|---------------------------------|---------------------------------|
  D|-----------------4---4---6---4---|---------------------------------|
  A|-2---2---6---6-------------------|-----------------2---2---4---2---|
  E|---------------------------------|-0---0---4---4-------------------|





  G|---------------------------------|---------------------------------|
  D|-----------------2---2---4---2---|-----------------2---2---4---2---|
  A|-0---0---4---4-------------------|-0---0---4---4-------------------|
  E|---------------------------------|---------------------------------|





  G|---------------------------------|---------------------------------|
  D|-----------------2---2---4---2---|-----------------2---2---4---2---|
  A|-0---0---4---4-------------------|-0---0---4---4-------------------|
  E|---------------------------------|---------------------------------|





  G|---------------------------------|---------------------------------|
  D|-----------------2---2---4---2---|-----------------2---2---4---2---|
  A|-0---0---4---4-------------------|-0---0---4---4-------------------|
  E|---------------------------------|---------------------------------|





  G|---------------------------------|---------------------------------|
  D|-----------------4---4---6---4---|-----------------4---4---6---4---|
  A|-2---2---6---6-------------------|-2---2---6---6-------------------|
  E|---------------------------------|---------------------------------|





     CHORUS


  G|---------------------------------|---------------------------------|
  D|-----------------2---2---4---2---|-----------------2---2---4---2---|
  A|-0---0---4---4-------------------|-0---0---4---4-------------------|
  E|---------------------------------|---------------------------------|





  G|---------------------------------|---------------------------------|
  D|-2---2---0---0-------------------|---------------------------------|
  A|-----------------4---4---2-------|-----------------2---2---4---2---|
  E|-----------------------------4---|-0---0---4---4-------------------|





  G|---------------------------------|---------------------------------|
  D|-----------------2---2---4---2---|-----------------2---2---4---2---|
  A|-0---0---4---4-------------------|-0---0---4---4-------------------|
  E|---------------------------------|---------------------------------|





  G|---------------------------------|---------------------------------|
  D|---------------------------------|---------------------------------|
  A|-----5---5-------5---------------|-----5---5-------5-----------0---|
  E|-7-----------7-------------------|-7-----------7-------------------|





  G|---------------------------------|---------------------------------|
  D|---------------------------------|---------------------------------|
  A|-0---0---0---0---0---0---0---0---|-0---0---0---0---0---0---1---2---|
  E|---------------------------------|---------------------------------|





     VERSE


  G|---------------------------------|---------------------------------|
  D|---------------------------------|---------------------------------|
  A|-----------------2---2---4---2---|-----------------2---2---4---2---|
  E|-0---0---4---4-------------------|-0---0---4---4-------------------|





  G|---------------------------------|---------------------------------|
  D|---------------------------------|-----------------4---4---6---4---|
  A|-----------------0---0---1---1---|-2---2---6---6-------------------|
  E|-0---0---4---4-------------------|---------------------------------|





  G|---------------------------------|---------------------------------|
  D|-----------------4---4---6---4---|-----------------4---4---6---4---|
  A|-2---2---6---6-------------------|-2---2---6---6-------------------|
  E|---------------------------------|---------------------------------|





  G|---------------------------------|---------------------------------|
  D|-----------------4---4---6---4---|---------------------------------|
  A|-2---2---6---6-------------------|-----------------2---2---4---2---|
  E|---------------------------------|-0---0---4---4-------------------|





  G|---------------------------------|---------------------------------|
  D|-----------------2---2---4---2---|-----------------2---2---4---2---|
  A|-0---0---4---4-------------------|-0---0---4---4-------------------|
  E|---------------------------------|---------------------------------|





  G|---------------------------------|---------------------------------|
  D|-----------------2---2---4---2---|-----------------2---2---4---2---|
  A|-0---0---4---4-------------------|-0---0---4---4-------------------|
  E|---------------------------------|---------------------------------|





  G|---------------------------------|---------------------------------|
  D|-----------------2---2---4---2---|-----------------2---2---4---2---|
  A|-0---0---4---4-------------------|-0---0---4---4-------------------|
  E|---------------------------------|---------------------------------|





  G|---------------------------------|---------------------------------|
  D|-----------------4---4---6---4---|-----------------4---4---6---4---|
  A|-2---2---6---6-------------------|-2---2---6---6-------------------|
  E|---------------------------------|---------------------------------|





     CHORUS


  G|---------------------------------|---------------------------------|
  D|-----------------2---2---4---2---|-----------------2---2---4---2---|
  A|-0---0---4---4-------------------|-0---0---4---4-------------------|
  E|---------------------------------|---------------------------------|





  G|---------------------------------|---------------------------------|
  D|-2---2---0---0-------------------|---------------------------------|
  A|-----------------4---4---2-------|-----------------2---2---4---2---|
  E|-----------------------------4---|-0---0---4---4-------------------|





  G|---------------------------------|---------------------------------|
  D|-----------------2---2---4---2---|-----------------2---2---4---2---|
  A|-0---0---4---4-------------------|-0---0---4---4-------------------|
  E|---------------------------------|---------------------------------|





  G|---------------------------------|---------------------------------|
  D|---------------------------------|---------------------------------|
  A|-----5---5-------5---------------|-----5---5-------5---------------|
  E|-7-----------7-------------------|-7-----------7-------------------|





  G|---------------------------------|---------------------------------|
  D|---------------------------------|---------------------------------|
  A|-5---5---5---5---5---5---5---5---|-5---5---5---5---5---5---6---7---|
  E|---------------------------------|---------------------------------|





     GUITAR SOLO


  G|---------------------------------|---------------------------------|
  D|---------------------------------|---------------------------------|
  A|-----------------2---2---4---2---|-----------------2---2---4---2---|
  E|-0---0---4---4-------------------|-0---0---4---4-------------------|





  G|---------------------------------|---------------------------------|
  D|---------------------------------|-----------------4---4---6---4---|
  A|-----------------0---0---1---1---|-2---2---6---6-------------------|
  E|-0---0---4---4-------------------|---------------------------------|





  G|---------------------------------|---------------------------------|
  D|-----------------4---4---6---4---|-----------------4---4---6---4---|
  A|-2---2---6---6-------------------|-2---2---6---6-------------------|
  E|---------------------------------|---------------------------------|





  G|---------------------------------|---------------------------------|
  D|-----------------4---4---6---4---|---------------------------------|
  A|-2---2---6---6-------------------|-----------------2---2---4---2---|
  E|---------------------------------|-0---0---4---4-------------------|





  G|---------------------------------|---------------------------------|
  D|-----------------2---2---4---2---|-----------------2---2---4---2---|
  A|-0---0---4---4-------------------|-0---0---4---4-------------------|
  E|---------------------------------|---------------------------------|





  G|---------------------------------|---------------------------------|
  D|-----------------2---2---4---2---|-----------------2---2---4---2---|
  A|-0---0---4---4-------------------|-0---0---4---4-------------------|
  E|---------------------------------|---------------------------------|





  G|---------------------------------|---------------------------------|
  D|-----------------2---2---4---2---|-----------------2---2---4---2---|
  A|-0---0---4---4-------------------|-0---0---4---4-------------------|
  E|---------------------------------|---------------------------------|





  G|---------------------------------|---------------------------------|
  D|-----------------4---4---6---4---|-----------------4---4---6---4---|
  A|-2---2---6---6-------------------|-2---2---6---6-------------------|
  E|---------------------------------|---------------------------------|





     CHORUS


  G|---------------------------------|---------------------------------|
  D|-----------------2---2---4---2---|-----------------2---2---4---2---|
  A|-0---0---4---4-------------------|-0---0---4---4-------------------|
  E|---------------------------------|---------------------------------|





  G|---------------------------------|---------------------------------|
  D|-2---2---0---0-------------------|---------------------------------|
  A|-----------------4---4---2-------|-----------------2---2---4---2---|
  E|-----------------------------4---|-0---0---4---4-------------------|





  G|---------------------------------|---------------------------------|
  D|-----------------2---2---4---2---|-----------------2---2---4---2---|
  A|-0---0---4---4-------------------|-0---0---4---4-------------------|
  E|---------------------------------|---------------------------------|





  G|---------------------------------|---------------------------------|
  D|---------------------------------|---------------------------------|
  A|-----5---5-------5---------------|-----5---5-------5---------------|
  E|-7-----------7-------------------|-7-----------7-------------------|





  G|---------------------------------|---------------------------------|
  D|---------------------------------|---------------------------------|
  A|-0---0---0---0---0---0---0---0---|-0---0---0---0---0---0---1---2---|
  E|---------------------------------|---------------------------------|





     VERSE


  G|---------------------------------|---------------------------------|
  D|---------------------------------|---------------------------------|
  A|-----------------2---2---4---2---|-----------------2---2---4---2---|
  E|-0---0---4---4-------------------|-0---0---4---4-------------------|





  G|---------------------------------|---------------------------------|
  D|---------------------------------|-----------------4---4---6---4---|
  A|-----------------0---0---1---1---|-2---2---6---6-------------------|
  E|-0---0---4---4-------------------|---------------------------------|





  G|---------------------------------|---------------------------------|
  D|-----------------4---4---6---4---|-----------------4---4---6---4---|
  A|-2---2---6---6-------------------|-2---2---6---6-------------------|
  E|---------------------------------|---------------------------------|





  G|---------------------------------|---------------------------------|
  D|-----------------4---4---6---4---|---------------------------------|
  A|-2---2---6---6-------------------|-----------------2---2---4---2---|
  E|---------------------------------|-0---0---4---4-------------------|





  G|---------------------------------|---------------------------------|
  D|-----------------2---2---4---2---|-----------------2---2---4---2---|
  A|-0---0---4---4-------------------|-0---0---4---4-------------------|
  E|---------------------------------|---------------------------------|





  G|---------------------------------|---------------------------------|
  D|-----------------2---2---4---2---|-----------------2---2---4---2---|
  A|-0---0---4---4-------------------|-0---0---4---4-------------------|
  E|---------------------------------|---------------------------------|





  G|---------------------------------|---------------------------------|
  D|-----------------2---2---4---2---|-----------------2---2---4---2---|
  A|-0---0---4---4-------------------|-0---0---4---4-------------------|
  E|---------------------------------|---------------------------------|





  G|---------------------------------|---------------------------------|
  D|-----------------4---4---6---4---|-----------------4---4---6---4---|
  A|-2---2---6---6-------------------|-2---2---6---6-------------------|
  E|---------------------------------|---------------------------------|





     CHORUS


  G|---------------------------------|---------------------------------|
  D|-----------------2---2---4---2---|-----------------2---2---4---2---|
  A|-0---0---4---4-------------------|-0---0---4---4-------------------|
  E|---------------------------------|---------------------------------|





  G|---------------------------------|---------------------------------|
  D|-2---2---0---0-------------------|---------------------------------|
  A|-----------------4---4---2-------|-----------------2---2---4---2---|
  E|-----------------------------4---|-0---0---4---4-------------------|





  G|---------------------------------|---------------------------------|
  D|-----------------2---2---4---2---|-----------------2---2---4---2---|
  A|-0---0---4---4-------------------|-0---0---4---4-------------------|
  E|---------------------------------|---------------------------------|





  G|---------------------------------|---------------------------------|
  D|---------------------------------|---------------------------------|
  A|-----5---5-------5---------------|-----5---5-------5---------------|
  E|-7-----------7-------------------|-7-----------7-------------------|





  G|---------------------------------|---------------------------------|
  D|---------------------------------|---------------------------------|
  A|-5---5---5---5---5---5---5---5---|-5---5---5---5---5---5---6---7---|
  E|---------------------------------|---------------------------------|





     PIANO SOLO


  G|---------------------------------|---------------------------------|
  D|---------------------------------|---------------------------------|
  A|-----------------2---2---4---2---|-----------------2---2---4---2---|
  E|-0---0---4---4-------------------|-0---0---4---4-------------------|





  G|---------------------------------|---------------------------------|
  D|---------------------------------|-----------------4---4---6---4---|
  A|-----------------0---0---1---1---|-2---2---6---6-------------------|
  E|-0---0---4---4-------------------|---------------------------------|





  G|---------------------------------|---------------------------------|
  D|-----------------4---4---6---4---|-----------------4---4---6---4---|
  A|-2---2---6---6-------------------|-2---2---6---6-------------------|
  E|---------------------------------|---------------------------------|





  G|---------------------------------|---------------------------------|
  D|-----------------4---4---6---4---|---------------------------------|
  A|-2---2---6---6-------------------|-----------------2---2---4---2---|
  E|---------------------------------|-0---0---4---4-------------------|





  G|---------------------------------|---------------------------------|
  D|-----------------2---2---4---2---|-----------------2---2---4---2---|
  A|-0---0---4---4-------------------|-0---0---4---4-------------------|
  E|---------------------------------|---------------------------------|





  G|---------------------------------|---------------------------------|
  D|-----------------2---2---4---2---|-----------------2---2---4---2---|
  A|-0---0---4---4-------------------|-0---0---4---4-------------------|
  E|---------------------------------|---------------------------------|





  G|---------------------------------|---------------------------------|
  D|-----------------2---2---4---2---|-----------------2---2---4---2---|
  A|-0---0---4---4-------------------|-0---0---4---4-------------------|
  E|---------------------------------|---------------------------------|





  G|---------------------------------|---------------------------------|
  D|-----------------4---4---6---4---|-9-9-9---9---9---9-9-9-9-9-9-9---|
  A|-2---2---6---6-------------------|---------------------------------|
  E|---------------------------------|---------------------------------|





     CHORUS


  G|---------------------------------|---------------------------------|
  D|-----------------2---2---4---2---|-----------------2---2---4---2---|
  A|-0---0---4---4-------------------|-0---0---4---4-------------------|
  E|---------------------------------|---------------------------------|





  G|---------------------------------|---------------------------------|
  D|-2---2---0---0-------------------|---------------------------------|
  A|-----------------4---4---2-------|-----------------2---2---4---2---|
  E|-----------------------------4---|-0---0---4---4-------------------|





  G|---------------------------------|---------------------------------|
  D|-----------------2---2---4---2---|-----------------2---2---4---2---|
  A|-0---0---4---4-------------------|-0---0---4---4-------------------|
  E|---------------------------------|---------------------------------|





  G|---------------------------------|---------------------------------|
  D|---------------------------------|---------------------------------|
  A|-----5---5-------5---------------|-----5---5-------5---------------|
  E|-7-----------7-------------------|-7-----------7-------------------|





  G|---------------------------------|---------------------------------|
  D|---------------------------------|---------------------------------|
  A|-0---0---0---0---0---0---0---0---|-0---0---1---2---4---4---5---6---|
  E|---------------------------------|---------------------------------|





     OUTRO


  G|---------------------------------|---------------------------------|
  D|---------------------------------|---------------------------------|
  A|-----------------2---2---4---2---|-----------------2---2---4---2---|
  E|-0---0---4---4-------------------|-0---0---4---4-------------------|





  G|---------------------------------|---------------------------------|
  D|-----------------2---2---4---2---|-----------------2---2---4---2---|
  A|-0---0---4---4-------------------|-0---0---4---4-------------------|
  E|---------------------------------|---------------------------------|





  G|---------------------------------|---------------------------------|
  D|---------------------------------|---------------------------------|
  A|-----5---5-------5---------------|-----5---5-------5---------------|
  E|-7-----------7-------------------|-7-----------7-------------------|





  G|---------------------------------|---------------------------------|
  D|-----------------2---2---4---2---|-----------------2---2---4---2---|
  A|-0---0---4---4-------------------|-0---0---4---4-------------------|
  E|---------------------------------|---------------------------------|





  G|---------------------------------|---------------------------------|
  D|-2---2---0---0-------------------|---------------------------------|
  A|-----------------4---4---2-------|-----------------2---2---4---2---|
  E|-----------------------------4---|-0---0---4---4-------------------|





  G|---------------------------------|---------------------------------|
  D|-----------------2---2---4---2---|-----------------2---2---4---2---|
  A|-0---0---4---4-------------------|-0---0---4---4-------------------|
  E|---------------------------------|---------------------------------|





  G|---------------------------------|---------------------------------|
  D|---------------------------------|---------------------------------|
  A|-----5---5-------5---------------|-----5---5-------5---------------|
  E|-7-----------7-------------------|-7-----------7-------------------|





  G|---------------------------------|---------------------------------|
  D|-----------------2---2---4---2---|-----------------2---2---4---2---|
  A|-0---0---4---4-------------------|-0---0---4---4-------------------|
  E|---------------------------------|---------------------------------|





  G|---------------------------------|---------------------------------|
  D|-2---2---0---0-------------------|---------------------------------|
  A|-----------------4---4---2-------|-----------------2---2---4---2---|
  E|-----------------------------4---|-0---0---4---4-------------------|





  G|---------------------------------|---------------------------------|
  D|-----------------2---2---4---2---|-----------------2---2---4---2---|
  A|-0---0---4---4-------------------|-0---0---4---4-------------------|
  E|---------------------------------|---------------------------------|





  G|---------------------------------|---------------------------------|
  D|---------------------------------|---------------------------------|
  A|-----5---5-------5---------------|-----5---5-------5---------------|
  E|-7-----------7-------------------|-7-----------7-------------------| 





  G|---------------------------------|---------------------------------|
  D|-----------------2---2---4---2---|-----------------2---2---4---2---|
  A|-0---0---4---4-------------------|-0---0---4---4-------------------|
  E|---------------------------------|---------------------------------|





  G|---------------------------------|---------------------------------|
  D|-2---2---0---0-------------------|---------------------------------|
  A|-----------------4---4---2-------|-----------------2---2---4---2---|
  E|-----------------------------4---|-0---0---4---4-------------------| ....
Suggest correction
What's this?
You can suggest a correction to this tab. Community and Mods will review your correction and vote to approve or reject it.
comments
We did not receive enough feedback on this tab! Please rate:
print report bad tab
1 2 3 4 5
guest
You may want to rate the tab now too:
select rating
Please do not post tabs as comments. Select "correction" instead!