Oops, an error
Loading. Please wait.

Nobody Loves You Bass Tab

1,360 views 1 this week
no commentswrite comment
1 2 3 4 5
2 more votes to show rating
add to favorites
launch autoscroll
font size
0
reset
guitar tuner
Autoscroll
slow
fast
+/-
esc
set tempo
stop
Help us to improve Ultimate-Guitar.com Take our survey!
×
Author
NOBODY LOVES YOU WHEN YOU’RE DOWN AND OUT

John Lennon
From Anthology – The Lost Weekend (CD 3) (1998)

  t=61

  00:00

(fade in)
...I’ll scratch your back and you scratch mine

  00:10

G|---------------------------------|---------------------------------|
D|---------------------------------|---------------------------------|
A|-5-------------------------------|---------------------------------|
E|---------------------------------|---------------------------------|

  00:17

two, three, four

Nobody loves you when you’re down and out
Nobody sees you when you’re on Cloud Nine
Ev'rybody's hustlin' for a buck and a dime
I’ll scratch your back and you scratch mine

  01:24

G|---------------------------------|---------------------------------|
D|---------------------------------|---------------------------------|
A|-5-------------------------------|-1---------------------------1-1-|
E|---------------------------------|---------------------------------|

G|---------------------------------|---------------------------------|
D|---------------------------------|---------------------------------|
A|-2-----------------------2---4---|---------------------------------|
E|---------------------------------|-2---------------3-------2-------|

G|---------------------------------|---------------------------------|
D|---------------------------------|---------------------------------|
A|-----------------------------4---|-5---------------2---------------|
E|-3-----------7---5-------7-------|-------------------------------2-|

G|---------------------------------|---------------------------------|
D|---------------------------------|---------------------------------|
A|---------------------------------|-5---------5-4-3-2---------------|
E|-3---------------3---------------|---------------------------------|

G|---------------------------------|---------------------------------|
D|---------------------------------|---------------------------------|
A|---------------------------------|-5-------------------------------|
E|-3---------------3---------------|---------------------------------|

  02:05

G|---------------------------------|---------------------------------|
D|---------------------------------|---------------------------------|
A|-5---------------------------5---|-7-------------------------------|
E|---------------------------------|--------/7-------0-------2-------|

G|---------------------------------|---------------------------------|
D|---------------------------------|---------------------------------|
A|---------------------------------|-5-------------------------------|
E|-3-----------------------3---5---|-------------------------5---7-5-|

G|---------------------------------|---------------------------------|
D|---------------------------------|---------------------------------|
A|-5-------------------------------|-7-------------------------------|
E|-------------------------5---7---|-----------------7-------0-2-----|

G|---------------------------------|---------------------------------|
D|---------------------------------|---------------------------------|
A|-------------------------2---0---|-5-------------------------------|
E|-3-------------------------------|---------------------------------|

  02:36

G|---------------------------------|---------------------------------|
D|---------------------------------|---------------------------------|
A|-5-------------------------------|-5-------------5-5---------------|
E|---------------------------------|---------------------------------|

G|---------------------------------|---------------------------------|
D|---------------------------------|---------------------------------|
A|-2-------------2-2-----------4---|---------------------------------|
E|---------------------------------|-2---------------3-------2-------|

G|---------------------------------|---------------------------------|
D|---------------------------------|---------------------------------|
A|---------2---2-------------------|-5---------------2---------------|
E|-3---------------5-----------7---|---------------------------------|

G|---------------------------------|---------------------------------|
D|---------------------------------|---------------------------------|
A|---------------------------------|-5---------------2---------------|
E|-3---------------3---------------|---------------------------------|

G|---------------------------------|---------------------------------|
D|---------------------------------|---------------------------------|
A|-----------------------------2---|-5-------------------------------|
E|-3---------------3---------------|---------------------------------|

  03:19

G|---------------------------------|---------------------------------|
D|-------------------------7-------|---------------------------------|
A|-5-----------5---5-----------5---|-7-------------------------------|
E|---------------------------------|--------/7-------0-------2-------|

G|---------------------------------|---------------------------------|
D|---------------------------------|----/9-------7-------4-----7-----|
A|-------------------------2---2---|-5---------------------------5---|
E|-3-----------3---------3---3-----|-------------------------------5-|

G|---------------------------------|---------------------------------|
D|---------------------------------|---------------------------------|
A|-5---------------5---2-------5---|-7-------------------------------|
E|---------------5---3-----7-------|-------------7---0-------2-------|

G|---------------------------------|---------------------------------|
D|---------------------------------|---------------------------------|
A|-----------------------------2---|-5-------------------------------|
E|-3-------------3-3---------------|---------------------------------|

  03:50

  t=66

G|---------------------------------|---------------------------------|
D|---------------------------------|---------------------------------|
A|-5-----5-5-----5-5-----5-5-----5-|-5-----5-5---5-2-----------5-----|
E|---------------------------------|-----------------3----5----------|

G|---------------------------------|---------------------------------|
D|---------------------------------|---------------------------------|
A|---------------------------------|-5-----5-5-----5-5-----5-5-----5-|
E|---------------------------------|---------------------------------|

G|---------------------------------|---------------------------------|
D|---------------------------------|---------------------------------|
A|-5-----5-5---5-2-----------5-----|---------------------------------|
E|-----------------3----5----------|---------------------------------|

  04:11

One, two, three, four

  04:15

  t=61

G|---------------------------------|---------------------------------|
D|---------------------7-----------|---------------------------------|
A|-5-----------------------5---6---|-7-------------------------------|
E|---------------------------------|-----------------0---------------|

G|---------------------------------|---------------------------------|
D|---------------------------------|---------------------------------|
A|-------------------------------2-|-5-------------------------------|
E|-3-------------3-3---------------|-------------7-5---5-7-5-----7-5-|

G|---------------------------------|---------------------------------|
D|-------------------------7-------|---------------------------------|
A|-5---------------------------5---|-7-------------------------------|
E|---------------------------------|---------------------0-------5---|

G|---------------------------------|---------------------------------|
D|---------------------------------|---------------------------------|
A|-----------------------------2---|-5-------------------------------|
E|-3-------------------3---------3-|---------------------------------|

  04:47

G|---------------------------------|---------------------------------|
D|---------------------7-----------|---------------------------------|
A|-5-----------------------5---6---|-7-------------------------------|
E|---------------------------------|--------/7-------0-------5-------|

G|---------------------------------|---------------------------------|
D|---------------------------------|----/9-------7-------4-----7-----|
A|---------------------2---0---2---|-5---------------------------5---|
E|-3-------------------------------|-------------------------------5-|

G|---------------------------------|---------------------------------|
D|---------------------------------|---------------------------------|
A|-5---5-----5-----7---5-----------|-7-------------------------------|
E|-------------5-----7-------------|--------/7-------0---------------|

G|---------------------------------|---------------------------------|
D|---------------------------------|---------------------------------|
A|-----------------------------2---|-5---------------5-------5-------|
E|-3-------------3-3---------------|---------------5-------5---5-7---|

  05:18

G|---------------------------------|---------------------------------|
D|---------------------------------|---------------------------------|
A|/9-----------9---7---------------|-7-------------------------------|
E|---------------------------------|-------------7---0-------2-------|

G|---------------------------------|---------------------------------|
D|---------------------------------|---------------------------------|
A|-------------------------5-------|-5-------------------------------|
E|-3-------5-------7---------------|---------------7-5---------------|
                                                         alright...

  05:33

G|---------------------------------|---------------------------------|
D|---------------------------------|---------------------------------|
A|-5-------------------------------|---------------------------------|
E|---------------------------------|---------------------------------|
Suggest correction
Give kudos to tab author, rate the tab!
1 2 3 4 5
comments
print report bad tab
guest
You may want to rate the tab now too:
select rating
Wanna post a correction for this tab? Suggest correction