Oops, an error
Loading. Please wait.

Nobody Told Me Bass Tab

version 1
version 1

Whole song

Interactive

2,561 views 12 this week
1 commentread comment
1 2 3 4 5
excellent!
x 2
add to favorites
launch autoscroll
font size
0
reset
guitar tuner
Tab Pro tools
  • play this tab
  • loop segment
  • change instrument
  • show fretboard
  • metronome
×
Best way to learn
"Nobody Told Me"
Autoscroll
slow
fast
+/-
esc
set tempo
stop
Contributor
Difficulty
Enjoy :)

G----------------|
D---------7H9-7/-|
A-------5--------|
E-5--55----------|

G-----------------------|---------|
D-----------------------|-9999999-|
A------7-7--5-5---------|---------|
E-55-5----------7-7-7-7-|---------|

G------------------------|---------------------------------------------|
D------------------------|---------------------------------------------|
A------7-7--5-5----------|--------7---7----7-----------7------7---7----|
E-55-5----------7-7-7-7--|-7-9-10---7---10---7--7-9-10---7-----10---7--|

CHORUS:
G------------------7---  ---------------------7-9/-|
D-5-5----------7H9---9-. ----5-5----------7H9------|
A-----5-5--7-7---------. --------5-5--7-7----------|
E----------------------  --------------------------|

G------------------------------|
D-----5-5-----------------5-5--|
A-3-3-----5-5-5-5-(2)-3-3------|
E------------------------------|  then back to verse, or this:

G---------------------------------------------|
D-------------------------------------6H8-6/--|
A------------4--6-7-8---------------4---------|
E-4--6-7-8--------------4--6-7-8--------------|
comments
We did not receive enough feedback on this tab! Please rate:
print report bad tab
1 2 3 4 5
1 comment total.
0 reply
wineredcustom wrote on November 30 2008, 05:53 am

Great tune and great TAB!
A really fun song to play.
I think on the last part you entered the wrong numbers by mistake.
It should go 5 7-8-9 on the E and A string, not 4 6-7-8.
But keep up the great work.

I want to post or [tab]
guest
You may want to rate the tab now too:
select rating
Please do not post tabs as comments. Select "correction" instead!