Oops, an error
Loading. Please wait.

Nobody Told Me Bass Tab

version 2
version 2

Whole song

Interactive

2,507 views 12 this week
no commentswrite comment
1 2 3 4 5
please rate
add to favorites
launch autoscroll
font size
0
reset
guitar tuner
Autoscroll
slow
fast
+/-
esc
set tempo
stop
Help us to improve Ultimate-Guitar.com Take our survey!
×
Author
bass69 4,955
NOBODY TOLD ME

John Lennon

INTRO

  triplet
G|---------------------------------|-------------4-------------------|
D|---------------------------------|---------------------------------|
A|---------------------------------|-5-------------------5-----------|
E|-5---------------5---------------|-------------------------7\------|

G|---------------------------------|-------------4-------------------|
D|---------------------------------|---------------------------------|
A|---------------------------------|-5-------------------5-----------|
E|-5---------------5---------------|-------------------------7\------|

VERSE

G|---------------------------------|---------------------------------|
D|---------------------------------|-------------4-------7---4\------|
A|---------------------------------|-5-------------------------------|
E|-5---------------5---------------|---------------------------------|

G|---------------------------------|-------------4-------------------|
D|---------------------------------|---------------------7---4\------|
A|---------------------------------|-5-------------------------------|
E|-5-------------------5---5-------|---------------------------------|

G|---------------------------------|-----------------|
D|---------------------------------|-----------------|
A|-----------------7---------------|-5-----------5---|
E|-5-----------5-------------------|-----------------|

G|---------------------------------|---------------------------------|
D|---------------------------------|---------------------------------|
A|-2-------2-------2-------2/------|-7---7---7-------7--7--7-7-------|
E|---------------------------------|---------------------------------|

PRE-CHORUS

G|---------------------------------|---------------------------------|
D|---------------------------------|-------------4-------7---4\------|
A|---------------------------------|-5-------------------------------|
E|-5-----------0---5---------------|---------------------------------|

G|---------------------------------|-------------4-------------------|
D|---------------------------------|---------------------7---4\------|
A|---------------------------------|-5-------------------------------|
E|-5-----------0---5---------------|---------------------------------|

G|---------------------------------|-----------------|
D|---------------------------------|-----------------|
A|-----------------7---------------|-5---------------|
E|-5-----------5-------------------|-----------------|

G|---------------------------------|---------------------------------|
D|---------------------------------|-------------0-------2-----------|
A|-2-------2-------2-------2-------|-2---4-------------------2-------|
E|---------------------------------|---------------------------------|

G|---------------------------------|---------------------------------|
D|-----2-------0-------2-----------|-------------0-------2-----------|
A|-2-----------------------2-------|-2---4-------------------2-------|
E|---------------------------------|---------------------------------|

                                    CHORUS
G|---------------------------------|---------------------------------|
D|---------2---0-------2-------2/--|---------------------------------|
A|---------------------------------|-----------------5-------5-------|
E|---------------------------------|-3-------3-----------------------|

G|---------------------7-----------|---------------------------------|
D|-----------------9-------9-------|---------------------------------|
A|-7-------7---7-------------------|-----------------5-------5-------|
E|---------------------------------|-3-------3-----------------------|

G|---------------------7-----------|---------------------------------|
D|-----------------9-------9-------|---------------------------------|
A|-7-------7---7-------------------|-----------------5-------5-------|
E|---------------------------------|-3-------3-----------------------|

G|---------------------7---9\------|---------------------------------|
D|-----------------9---------------|-----------------5-------5-------|
A|-7-------7---7-------------------|-3-------3-----------------------|
E|---------------------------------|---------------------------------|

G|---------------------------------|---------------------------------|
D|---------------------------------|-----------------5-------5-------|
A|-5-------5-------5---------------|-3-------3-----------------------|
E|---------------------5-----------|---------------------------------|

G|---------------------------------|---------------------------------|
D|---------------------------------|-0----------2--3-4---------------|
A|-0----------2--3-4---------------|---------------------------------|
E|---------------------------------|---------------------------------|

G|---------------------------------|---------------------2-----------|
D|---------------------------------|-0----------2--3-4-------4\------|
A|-0----------2--3-4---------------|---------------------------------|
E|---------------------------------|---------------------------------|

VERSE

G|---------------------------------|---------------------------------|
D|---------------------------------|-------------4-------7---4\------|
A|---------------------------------|-5-------------------------------|
E|-5---------------5---------------|---------------------------------|

G|---------------------------------|-------------4-------------------|
D|---------------------------------|---------------------7---4\------|
A|---------------------------------|-5-------------------------------|
E|-5-------------------5---5-------|---------------------------------|

G|---------------------------------|-----------------|
D|---------------------------------|-----------------|
A|-----------------7---------------|-5-----------5---|
E|-5-----------5-------------------|-----------------|

G|---------------------------------|---------------------------------|
D|---------------------------------|---------------------------------|
A|-2-------2-------2-------2/------|-7---7---7-------7--7--7-7-------|
E|---------------------------------|---------------------------------|

PRE-CHORUS

G|---------------------------------|---------------------------------|
D|---------------------------------|-------------4-------7---4\------|
A|---------------------------------|-5-------------------------------|
E|-5-----------0---5---------------|---------------------------------|

G|---------------------------------|-------------4-------------------|
D|---------------------------------|---------------------7---4\------|
A|---------------------------------|-5-------------------------------|
E|-5-----------0---5---------------|---------------------------------|

G|---------------------------------|-----------------|
D|---------------------------------|-----------------|
A|-----------------7---------------|-5---------------|
E|-5-----------5-------------------|-----------------|

G|---------------------------------|---------------------------------|
D|---------------------------------|-------------0-------2-----------|
A|-2-------2-------2-------2-------|-2---4-------------------2-------|
E|---------------------------------|---------------------------------|

G|---------------------------------|---------------------------------|
D|-----2-------0-------2-----------|-------------0-------2-----------|
A|-2-----------------------2-------|-2---4-------------------2-------|
E|---------------------------------|---------------------------------|

                                    CHORUS
G|---------------------------------|---------------------------------|
D|---------2---0-------2-------2/--|---------------------------------|
A|---------------------------------|-----------------5-------5-------|
E|---------------------------------|-3-------3-----------------------|

G|---------------------7-----------|---------------------------------|
D|-----------------9-------9-------|---------------------------------|
A|-7-------7---7-------------------|-----------------5-------5-------|
E|---------------------------------|-3-------3-----------------------|

G|---------------------7-----------|---------------------------------|
D|-----------------9-------9-------|---------------------------------|
A|-7-------7---7-------------------|-----------------5-------5-------|
E|---------------------------------|-3-------3-----------------------|

G|---------------------7---9\------|---------------------------------|
D|-----------------9---------------|-----------------5-------5-------|
A|-7-------7---7-------------------|-3-------3-----------------------|
E|---------------------------------|---------------------------------|

G|---------------------------------|---------------------------------|
D|---------------------------------|-----------------5-------5-------|
A|-5-------5-------5---------------|-3-------3-----------------------|
E|---------------------5-----------|---------------------------------|

G|---------------------------------|---------------------------------|
D|---------------------------------|-0----------2--3-4---------------|
A|-0----------2--3-4---------------|---------------------------------|
E|---------------------------------|---------------------------------|

G|---------------------------------|---------------------2-----------|
D|---------------------------------|-0----------2--3-4-------4\------|
A|-0----------2--3-4---------------|---------------------------------|
E|---------------------------------|---------------------------------|

VERSE

G|---------------------------------|---------------------------------|
D|---------------------------------|-------------4-------7---4\------|
A|---------------------------------|-5-------------------------------|
E|-5---------------5---------------|---------------------------------|

G|---------------------------------|-------------4-------------------|
D|---------------------------------|---------------------7---4\------|
A|---------------------------------|-5-------------------------------|
E|-5-------------------5---5-------|---------------------------------|

G|---------------------------------|-----------------|
D|---------------------------------|-----------------|
A|-----------------7---------------|-5-----------5---|
E|-5-----------5-------------------|-----------------|

G|---------------------------------|---------------------------------|
D|---------------------------------|-------------0-------2-----------|
A|-2-------2-------2-------2/------|-2---4-------------------2-------|
E|---------------------------------|---------------------------------|

G|---------------------------------|---------------------------------|
D|-----2-------0-------2-----------|-------------0-------2-----------|
A|-2-----------------------2-------|-2---4-------------------2-------|
E|---------------------------------|---------------------------------|

                                    CHORUS
G|---------------------------------|---------------------------------|
D|---------2---0-------2-------2/--|---------------------------------|
A|---------------------------------|-----------------5-------5-------|
E|---------------------------------|-3-------3-----------------------|

G|---------------------7-----------|---------------------------------|
D|-----------------9-------9-------|---------------------------------|
A|-7-------7---7-------------------|-----------------5-------5-------|
E|---------------------------------|-3-------3-----------------------|

G|---------------------7-----------|---------------------------------|
D|-----------------9-------9-------|---------------------------------|
A|-7-------7---7-------------------|-----------------5-------5-------|
E|---------------------------------|-3-------3-----------------------|

G|---------------------7---9\------|---------------------------------|
D|-----------------9---------------|-----------------5-------5-------|
A|-7-------7---7-------------------|-3-------3-----------------------|
E|---------------------------------|---------------------------------|

G|---------------------------------|---------------------------------|
D|---------------------------------|-----------------5-------5-------|
A|-5-------5-------5---------------|-3-------3-----------------------|
E|---------------------5-----------|---------------------------------|

OUTRO

G||---------------------------------|---------------------------------|
D||---------------------------------|-0----------2--3-4---------------|
A||-0----------2--3-4---------------|---------------------------------|
E||---------------------------------|---------------------------------|

G|---------------------------------|-------------4-------2-----------||
D|---------------------------------|-0-----------------------4\------||
A|-0----------2--3-4---------------|---------------------------------||
E|---------------------------------|---------------------------------||
                                                  REPEAT AND FADE OUT
Suggest correction
What's this?
You can suggest a correction to this tab. Community and Mods will review your correction and vote to approve or reject it.
comments
We did not receive enough feedback on this tab! Please rate:
print report bad tab
1 2 3 4 5
guest
You may want to rate the tab now too:
select rating
Please do not post tabs as comments. Select "correction" instead!