Oops, an error
Loading. Please wait.

Oh My Love Bass Tab

version 1
version 1

Whole song

Interactive

1,358 views 1 this week
no commentswrite comment
1 2 3 4 5
please rate
add to favorites
launch autoscroll
font size
0
reset
guitar tuner
Autoscroll
slow
fast
+/-
esc
set tempo
stop
Help us to improve Ultimate-Guitar.com Take our survey!
×
Author
++++++++++++++++++++++++++++
| John Lennon- Oh My Love  |
++++++++++++++++++++++++++++


"I see the wind, oh I see the trees..."


Tuning: EADG


Intro
1.
G|-----------------------------------------|
D|-----------------------------------------|
A|-5~--------4~--------2~--------0~--------|
E|-----------------------------------------|

Verse
"Oh my love for the first time in my life..."
2.
G|-----------------------------------------|
D|-----------------------------------------|
A|-5~--------4~--------2~--------0~--------|--x2
E|-----------------------------------------|

Chorus
"I see the wind..."
3.
G|-11----14-13-11~------10/11-13~-------------------------------------|
D|----11-------------11-------------11-11--11\--0~--------------------|
A|--------------------------------------------------------0~----4~----|
E|--------------------------------------------------------------------|

"I see the clouds..."
4.
G|-11----14-13-11~------10/11-13~-------------------------------------|
D|----11-------------11-------------11-11--11\--0~--------------------|
A|--------------------------------------------------------0~----0~----|
E|--------------------------------------------------------------------|

Verse
"Oh my love..."
5.
G|-----------------------------------------|
D|-----------------------------------------|
A|-5~--------4~--------2~--------0~--------|
E|-----------------------------------------|

"Oh my lover..."
6.
G|-------------------------------------------|
D|-------------------------------------------|
A|-5~--------4~--------2~----------0~--------|
E|---------------------------0~--------------|

Chorus
"I feel the sorrow..."
7.
G|-11----14-13-11~------10/11-13~-------------------------------------|
D|----11-------------11-------------11-11--11\--0~--------------------|
A|--------------------------------------------------------0~----4~----|
E|--------------------------------------------------------------------|

"I feel life..."
8.
G|-11----14-13-11~------10/11-13~-------------------------------------|
D|----11-------------11-------------11-11--11\--0~--------------------|
A|--------------------------------------------------------0~----0~----|
E|--------------------------------------------------------------------|

Outro
9.
G|-----------------------------------------|
D|-----------------------------------------|
A|-5~--------4~--------2~--------0~--------|
E|-----------------------------------------|


Please rate thanks!


Lyrics:

Oh my love for the first time in my life
My eyes are wide open
Oh my lover for the first time in my life
My eyes can see 

I see the wind, oh I see the trees
Everything is clear in my heart
I see the clouds, oh I see the sky
Everything is clear in our world 

Oh my love for the first time in my life
My mind is wide open
Oh my lover for the first time in my life
My mind can feel 

I feel the sorrow, oh I feel the dreams
Everything is clear in my heart
I feel life, oh I feel love
Everything is clear in our world 



+++++++++++
| Raileff |
+++++++++++
Suggest correction
Give kudos to tab author, rate the tab!
1 2 3 4 5
comments
print report bad tab
guest
You may want to rate the tab now too:
select rating
Please do not post tabs as comments. Select "correction" instead!