Oops, an error
Loading. Please wait.

Oh My Love Tab

version 1
version 1

Whole song

Interactive

34,956 views 18 this week
3 commentsread comments
1 2 3 4 5
x 7
add to favorites
launch autoscroll
font size
0
reset
how to read this tab
guitar tuner
Autoscroll
slow
fast
+/-
esc
set tempo
stop
Help us to improve Ultimate-Guitar.com Take our survey!
×
titel: "Oh my love" (intro)
interpret: John Lennon (Imagine)
from: Henrik Hertel
 
 
Intro:
 
     BM      BM7  C#M     C#M7   BM           A
e/-----------2-------------4-------------2-----------------
B/---------3-------------5-------------3---3--------2h3p2--
G/-------4---2---------6---4---------4------------2--------
D/-----4-------------6-------------4------------2----------
A/---2-------------4-------------2------------0------------
E/---------------------------------------------------------
 
Just repeat it 4 times, that´s it!
 
h= hammer
p= pull off
 
Please mail me (even in german language!) if you have any
comments or if you just want to say something about John, because:
My ears are wide open!
Suggest correction
comments
print report bad tab
3 comments total.
0 reply
Grizzlymack 10 Feb 14, 2007 11:14 PM

Not accurate mate

0 reply
nrrjw 117 Mar 30, 2010 06:37 PM

The way George Harrison played the A chord part was like this:

A
e|------------------|
B|------------------|
G|-----------6/7\6--|
D|-------7----------|
A|----7-------------|
E|-5----------------|

I have seen the recording session from Oh My Love.

0 reply
GuitarGeekxD 32 Jun 15, 2010 11:35 AM, edited on April 30 2015, 10:02 am

e-9-------------|-------------------------------------
B-10---10--9--7-|--2--6\7\9-----------------------------
G-11------------|-------------------------------------
D-11---12--9--7-|--4--6\7\9----------------------------
A-9-------------|--------------------------------------
E-9-------------|--------------------------------------
Than

I saw Oh my love recording sessions on youtube,and thats how i saw George Harrison play

guest
You may want to rate the tab now too:
select rating
Wanna post a correction for this tab? Suggest correction