Oops, an error
Loading. Please wait.

Oh Yoko Bass Tab

1,862 views 1 this week
no commentswrite comment
1 2 3 4 5
please rate
add to favorites
launch autoscroll
font size
0
reset
guitar tuner
Tab Pro tools
  • play this tab
  • loop segment
  • change instrument
  • show fretboard
  • metronome
×
Best way to learn
"Oh Yoko"
Autoscroll
slow
fast
+/-
esc
set tempo
stop
Contributor
+++++++++++++++++++++++++
| John Lennon- Oh Yoko! |
+++++++++++++++++++++++++


"My love will turn you on..."

Tuning: EADG


Intro
1.
G|---------------------------------------------------------|
D|---------------------------------------------------------|
A|-4~----3~----1~------1~--3~--4~----3~----1~------1~--3~--|
E|-------------------1---------------------------1---------|

Verse
"In the middle of the night..."
2.
G|---------------------------------------------------------|
D|---------------------------------------------------------|
A|-4~----3~----1~------1-1-1-3-4~----3~----1~------1-1-1-3-|
E|-------------------1---------------------------1---------|

Chorus
"Oh Yoko!"
3.
G|---------------------------------------------------------------------|
D|-------------------4-4-----------------------------8-6--------4~---6-|
A|-4~----------4~--------4---4~--------------4~--6-8----------4--------|
E|-------4~----------------4-------4~----6~--------------2~------------|

Outro
4.
G|-6~---6-5~---5-3~---3------3-|
D|----------------------6~-----|
A|-----------------------------|
E|-----------------------------|

Verse
"In the middle of the bath..."
5.
G|-6~---6-5~---5-----------------------------------------------|
D|---------------8~---6h8p6------------------------------------|
A|--------------------------8-6-8-4~---4-3~---3-1~---4-6-4-----|
E|---------------------------------------------------------6-4-|

Chorus
"Oh Yoko!"
6.
G|-------------------------------------------------6~---6-8-6-----|
D|------------------------------------3-4-6~-6-8~-------------8-6-|
A|-4-4-4-4---------4-4-4-----1---3-4~-----------------------------|
E|---------4-4-4-4-------4-2---4----------------------------------|

"My love will turn you on..."
7.
G|-------------------------------------------------|
D|-4~----------------------------------------------|
A|------4--------4~------3~------1~------1~------1-|
E|--------2~---4-----4~------4~------1~------1~----|

"My love...will...turn..."
8.
G|-----------------------------------------------------------------|
D|---------------------------------4-4-4-4-4-4-4-4-4-4-4-4-4-4-4-6-|
A|-------------------------------4---------------------------------|
E|-2-2-2-2-2-2-2-2-2-2-2-2-2-2-2-----------------------------------|

Outro
9.
G|-------------------------------|
D|---------------------------8-6-|
A|-4~---4-3~---3-1~--4~--6-8-----|
E|-------------------------------|

Verse
"In the middle of a shave..."
10.
G|-------------------------------------------------------------|
D|---------------------------------------------------------8-6-|
A|-4~---4-3~---3-1~------1~--3~--4~---4-3~---3-1~--4~--6-8-----|
E|-------------------1~----------------------------------------|

Chorus
"Oh Yoko!"
11.
G|----------------------------------------------------------------------------|
D|------3-6~--------------------------------------------8-6-------------------|
A|-4~-----------4-4-4-4---1---3-4~---4----------------------8-----------------|
E|----------------------2---4----------4~---4-6~----6-6-------2-2-2-2-2-2-2-4-|

Outro
12.
G|------------------------------|
D|------------------------------|
A|-4~---4-3~---3-1~---1-1~--3~--|
E|------------------------------|

Verse
"In the middle of a dream..."
13.
G|-----------------------------------------------------------|
D|--------------------------8-6--------------------------8---|
A|-4~---4-3~---3-1~---4-6-8-----4~---4-3~---3-1~---4-6-8---6-|
E|-----------------------------------------------------------|

Chorus
"Oh Yoko!"
14.
G|----------------------------------------------------------------------------------|
D|------------------------6-----------------------------------8-6-8---------4-4-4---|
A|-4~--4~----------4~--4~-----1---3-4~--4~------------------------------4-4---------|
E|---------4~--4~-----------2---4-----------4~--4~--6~--6~--6-------2-2-----------4-|

Outro
15.
G|-------------------------------|
D|-------------------------------|
A|-4~---4-3~---3-1~------1~----1-|
E|-------------------1~------1---|

"My love...will...turn..."
16.
G|-----------------------------------------------------------------|
D|-------------------------------3-4-4-----4-4---3-4-4-4-4-4-4-4-6-|
A|---------------------------1-4-------4-4-----4-------------------|
E|-2-2-2-2-2-2-2-2-2-2-2-2-2---------------------------------------|

Bridge
17.
G|-----------------------------------------------------------|
D|-------------------------------------------------------8-6-|
A|-4~---4-3~---3-1~----1~--3~--4~---4-3~---3-1~--4~-66-8-----|
E|-----------------------------------------------------------|

18.
G|--------------------3h5-3~-----------------------------------|
D|---------------------------6-4-------------------------------|
A|-4~---4-3~---3-1~--------------4~---4-3~---3-1-1-1-1-1-1-1-3-|
E|-------------------------------------------------------------|

Verse
"In the middle of a cloud..."
19.
G|----------------------------------------------------------------|
D|------------------------------8-6-------------------------------|
A|-4~---4-3~---3-1~---4h6p4-6-8-----4~---4-3~---3-1~---1-1~---1-3-|
E|----------------------------------------------------------------|

Chorus
"Oh Yoko!"
20.
G|----------------------------------------------------------------------------|
D|--------------------------------------------------------8-6---------4-4-4-6-|
A|-4~---4------3-4~---4---1---3-4~---4------------4~--6-8-----------4---------|
E|--------4~------------2---4----------4~---4-6~--------------2-2-2-----------|

Outro
21.
G|-6~---6-5~---5-3~-----3-3-3-5-------------------------------|
D|--------------------6-----------------------------------8-6-|
A|------------------------------4~---4-3~---3-1~-44-6-6-8-----|
E|------------------------------------------------------------|

"Oh Yoko..."
22.
G|----------------------------------------------------------------|
D|-------------------------------------------------3-6-34-4-------|
A|-4~---4-3~---3-1~---4-6-4-------4~---4-----3~--4----------4-4---|
E|--------------------------6-4-6--------4~---------------------4-|


Please rate thanks!


Lyrics:

In the middle of the night
In the middle of the night I call your name
Oh Yoko, oh Yoko, my love will turn you on 

In the middle of the bath
In the middle of the bath I call your name
My love will turn you on 

In the middle of a shave
In the middle of a shave I call your name
 

In the middle of a dream
In the middle of a dream I call your name
Oh Yoko, oh Yoko, my love will turn you on
My love will turn you on 

In the middle of a cloud
In the middle of a cloud I call your name



+++++++++++
| Raileff |
+++++++++++
comments
We did not receive enough feedback on this tab! Please rate:
print report bad tab
1 2 3 4 5
I want to post or [tab]
guest
You may want to rate the tab now too:
select rating
Please do not post tabs as comments. Select "correction" instead!