Oops, an error
Loading. Please wait.

Stand By Me Bass Tab

version 2
version 2

Whole song

Interactive

13,501 views 9 this week
no commentswrite comment
1 2 3 4 5
excellent!
x 3
add to favorites
launch autoscroll
font size
0
reset
guitar tuner
Autoscroll
slow
fast
+/-
esc
set tempo
stop
Help us to improve Ultimate-Guitar.com Take our survey!
×
Author
STAND BY ME

John Lennon

G|---------------------------------|---------------------------------|
D|---------------------------------|---------------------------------|
A|---------------------------------|---------------------------------|
E|---------------------------------|-5---5---0---0---5---5---5---5---|
                               so   dar  -  ling,   dar  -  ling

CHORUS

G|---------------------------------|---------------------------------|
D|---------------------------------|---------------------------------|
A|---------------------------------|---------------------------------|
E|-5-----------5---------------0---|-5-----------5---------------0---|

G|---------------------------------|---------------------------------|
D|---------------------------------|---------------------------------|
A|---------------------------------|-----------------------------4---|
E|-2-----------2-----------0-------|-2-----------2-------------------|

G|---------------------------------|---------------------------------|
D|---------------------------------|---------------------------------|
A|-5-----------5-------------------|-7-------------------------------|
E|---------------------------------|-------------0-------0---2---0---|

G|---------------------------------|---------------------------------|
D|---------------------------------|---------------------------------|
A|---------------------------------|---------------------------------|
E|-5-----------5---------------0---|-5-----------5---------------0---|

VERSE

G|---------------------------------|---------------------------------|
D|---------------------------------|---------------------------------|
A|---------------------------------|---------------------------------|
E|-5-----------5---------------0---|-5-----------5---------------0---|

G|---------------------------------|---------------------------------|
D|---------------------------------|---------------------------------|
A|---------------------------------|-----------------------------4---|
E|-2-----------2---------------0---|-2-----------2-------------------|

G|---------------------------------|---------------------------------|
D|---------------------------------|---------------------------------|
A|-5-----------5---------------6---|-7-------------------------------|
E|---------------------------------|-------------0-------0---2---0---|

G|---------------------------------|---------------------------------|
D|---------------------------------|---------------------------------|
A|---------------------------------|---------------------------------|
E|-5-----------5---------------0---|-5-----------5---------------0---|

VERSE

G|---------------------------------|---------------------------------|
D|---------------------------------|---------------------------------|
A|---------------------------------|---------------------------------|
E|-5-----------5---------------0---|-5-----------5---------------0---|

G|---------------------------------|---------------------------------|
D|---------------------------------|---------------------------------|
A|---------------------------------|-----------------------------4---|
E|-2-----------2---------------0---|-2-----------2-------------------|

G|---------------------------------|---------------------------------|
D|---------------------------------|---------------------------------|
A|-5-----------5---------------6---|-7-------------------------------|
E|---------------------------------|-------------0-------0---2---0---|

G|---------------------------------|---------------------------------|
D|---------------------------------|---------------------------------|
A|---------------------------------|---------------------------------|
E|-5-----------5---------------0---|-5-----------5---------------0---|

CHORUS

G|---------------------------------|---------------------------------|
D|---------------------------------|---------------------------------|
A|---------------------------------|---------------------------------|
E|-5-----------5---------------0---|-5-----------5---------------0---|

G|---------------------------------|---------------------------------|
D|---------------------------------|---------------------------------|
A|---------------------------------|-----------------------------4---|
E|-2-----------2-----------0-------|-2-----------2-------------------|

G|---------------------------------|---------------------------------|
D|---------------------------------|---------------------------------|
A|-5-----------5---------------6---|-7-----------7-------------------|
E|---------------------------------|-------------------------2---0---|

G|---------------------------------|---------------------------------|
D|---------------------------------|---------------------------------|
A|---------------------------------|---------------------------------|
E|-5-----------5---------------0---|-5-----------5-------------------|

GUITAR SOLO

G|---------------------------------|---------------------------------|
D|---------------------------------|---------------------------------|
A|---------------------------------|---------------------------------|
E|-5-----------5---------------0---|-5-----------5---------------5---|

G|---------------------------------|---------------------------------|
D|---------------------------------|---------------------------------|
A|---------------------------------|-----------------------------4---|
E|-2-----------2---2-----------0---|-2-----------2---2---------------|

G|---------------------------------|---------------------------------|
D|---------------------------------|---------------------------------|
A|-5-----------5---5---------------|-7-----------7-------------------|
E|---------------------------------|-----------------0---2---5---0---|

G|---------------------------------|---------------------------------|
D|---------------------------------|---------------------------------|
A|---------------------------------|---------------------------------|
E|-5-----------5---------------0---|-5-----------5---------------0---|

G|---------------------------------|---------------------------------|
D|---------------------------------|---------------------------------|
A|---------------------------------|---------------------------------|
E|-5-----------5---------------0---|-5-----------5---5-----------5---|

G|---------------------------------|---------------------------------|
D|---------------------------------|---------------------------------|
A|---------------------------------|-----------------------------7---|
E|-2-----------2---2-------0-------|-2-----------2---2---------------|

G|---------------------------------|---------------------------------|
D|---------------------------------|---------------------------------|
A|-5-----------5---5-----------6---|-7-------------------------------|
E|---------------------------------|-------------0-------2---5---2---|

G|---------------------------------|---------------------------------|
D|---------------------------------|---------------------------------|
A|---------------------------------|---------------------------------|
E|-5-----------5---5-----------0---|-5-----------5---5-------0---2---|

CHORUS

G|---------------------------------|---------------------------------|
D|---------------------------------|---------------------------------|
A|---------------------------------|---------------------------------|
E|-5-----------5---------------0---|-5-----------5-----------4-------|

G|---------------------------------|---------------------------------|
D|---------------------------------|---------------------------------|
A|---------------------------------|-----------------------------4---|
E|-2-----------2-----------0-------|-2-----------2---2---------------|

G|---------------------------------|---------------------------------|
D|---------------------------------|---------------------------------|
A|-5-----------5---5-----------6---|-7-------------------------------|
E|---------------------------------|-------------0-------2---5---2---|

G|---------------------------------|---------------------------------|
D|---------------------------------|---------------------------------|
A|---------------------------------|-----------------4---------------|
E|-5-----------5---------------0---|-5-----------5-----------5---0---|

OUTRO

G|---------------------------------|---------------------------------|
D|---------------------------------|---------------------------------|
A|---------------------------------|---------------------------------|
E|-5-----------5---------------0---|-5-----------5-----------4-------|

G|---------------------------------|---------------------------------|
D|---------------------------------|---------------------------------|
A|---------------------------------|-----------------------------4---|
E|-2-----------2-----------0-------|-2-----------2---2---------------|

G|---------------------------------|---------------------------------|
D|---------------------------------|---------------------------------|
A|-5-----------5---5-----------6---|---------------------------------|
E|---------------------------------|-0-----------0-------2---5---2---|

G|---------------------------------|---------------------------------|
D|---------------------------------|---------------------------------|
A|---------------------------------|-----------------4---------------|
E|-5-----------5---------------0---|-5-----------5-----------5---0---|
                                                             FADE OUT
Suggest correction
Give kudos to tab author, rate the tab!
1 2 3 4 5
comments
print report bad tab
guest
You may want to rate the tab now too:
select rating
Wanna post a correction for this tab? Suggest correction