Oops, an error
Loading. Please wait.

War Is Over ukulele

395 views 3 this week
no commentswrite comment
1 2 3 4 5
3 more votes to show rating
add to favorites
×
Save as Personal and add changes to this tab that will be seen only by you. Learn more ›
×
You can save this tab as Personal to edit and correct it or add notes. All changes will be seen only by you. Learn more »
launch autoscroll
font size
0
reset
transpose
0
reset
simplify chords
display chords
guitar tuner
edit
Autoscroll
slow
fast
+/-
esc
set tempo
stop
Difficulty
Strumming
There is no strumming pattern for this song yet. and get +5 IQ
         john lennon - happy x-mas war is over



     A          Asus2         Asus4            A          Bm         Bsus2  
     E  S S S S E     S S S S E     S S    S S E  S S S S E  S S S S E      
E||--0--0-0-0-0-0-----0-0-0-0-0-----0-0-|--0-0-0--0-0-0-0-2--2-2-2-2-2-----|
B||--2--2-2-2-2-0-----0-0-0-0-3-----3-3-|--3-3-2--2-2-2-2-3--3-3-3-3-2-----|
G||--2--2-2-2-2-2-----2-2-2-2-2-----2-2-|--2-2-2--2-2-2-2-4--4-4-4-4-4-----|
D||--2--2-2-2-2-2-----2-2-2-2-2-----2-2-|--2-2-2--2-2-2-2-4--4-4-4-4-4-----|
A||--0--0-0-0-0-0-----0-0-0-0-0-----0-0-|--0-0-0--0-0-0-0-2--2-2-2-2-2-----|
E||-------------------------------------|----------------------------------|
So this is Christmas                               And what have you done
And so this is Christmas                           For weak and for strong
And so this is Christmas                           And what have we done


          Bsus4         Bm            Esus4            E       Esus2      
  S S S S E     S S S S E  S S S S    E     S S S S E  S S S S E     S S  
--2-2-2-2-2-----2-2-2-2-2--2-2-2-2-|--0-----0-0-0-0-0--0-0-0-0-2-----2-2-|
--2-2-2-2-5-----5-5-5-5-3--3-3-3-3-|--0-----0-0-0-0-0--0-0-0-0-0-----0-0-|
--4-4-4-4-4-----4-4-4-4-4--4-4-4-4-|--2-----2-2-2-2-1--1-1-1-1-x-----x-x-|
--4-4-4-4-4-----4-4-4-4-4--4-4-4-4-|--2-----2-2-2-2-2--2-2-2-2-2-----2-2-|
--2-2-2-2-2-----2-2-2-2-2--2-2-2-2-|--2-----2-2-2-2-2--2-2-2-2-----------|
-----------------------------------|-------------------------------------|
                          Another year over
                          For rich and the poor ones
                          Another year over


      E          A          Asus2            Asus4         A           
  S S E  S S S S E  S S S S E        S S S S E     S S S S E  S S S S  
--2-2-0--0-0-0-0-0--0-0-0-0-0-----|--0-0-0-0-0-----0-0-0-0-0--0-0-0-0-|
--0-0-0--0-0-0-0-2--2-2-2-2-0-----|--0-0-0-0-3-----3-3-3-3-2--2-2-2-2-|
--x-x-1--1-1-1-1-2--2-2-2-2-2-----|--2-2-2-2-2-----2-2-2-2-2--2-2-2-2-|
--2-2-2--2-2-2-2-2--2-2-2-2-2-----|--2-2-2-2-2-----2-2-2-2-2--2-2-2-2-|
------2--2-2-2-2-0--0-0-0-0-0-----|--0-0-0-0-0-----0-0-0-0-0--0-0-0-0-|
----------------------------------|-----------------------------------|
       And a new one just begun                           and so this is 
       The world is so wrong                              And so happy 
       A new one just begun                               And so happy 


  D          Dsus2         Dsus4            D          Em         Emadd9  
  E  S S S S E     S S S S E     S S    S S E  S S S S E  S S S S E       
--2--2-2-2-2-0-----0-0-0-0-3-----3-3-|--3-3-2--2-2-2-2-0--0-0-0-0-2------|
--3--3-3-3-3-3-----3-3-3-3-3-----3-3-|--3-3-3--3-3-3-3-0--0-0-0-0-0------|
--2--2-2-2-2-2-----2-2-2-2-2-----2-2-|--2-2-2--2-2-2-2-0--0-0-0-0-0------|
--0--0-0-0-0-0-----0-0-0-0-0-----0-0-|--0-0-0--0-0-0-0-2--2-2-2-2-2------|
-------------------------------------|-----------------2--2-2-2-2-2------|
-------------------------------------|-----------------------------------|
Christmas                                  I hope you have fun
Christmas                                  For black and for white
Christmas                                  We hope you have fun


          Esus4         Em            Asus4         A          Asus2      
  S S S S E     S S S S E  S S S S    E     S S S S E  S S S S E     S S  
--2-2-2-2-0-----0-0-0-0-0--0-0-0-0-|--0-----0-0-0-0-0--0-0-0-0-0-----0-0-|
--0-0-0-0-0-----0-0-0-0-0--0-0-0-0-|--3-----3-3-3-3-2--2-2-2-2-0-----0-0-|
--0-0-0-0-2-----2-2-2-2-0--0-0-0-0-|--2-----2-2-2-2-2--2-2-2-2-2-----2-2-|
--2-2-2-2-2-----2-2-2-2-2--2-2-2-2-|--2-----2-2-2-2-2--2-2-2-2-2-----2-2-|
--2-2-2-2-2-----2-2-2-2-2--2-2-2-2-|--0-----0-0-0-0-0--0-0-0-0-0-----0-0-|
-----------------------------------|-------------------------------------|
                The near and the dear one
                For yellow and red ones
                The near and the dear one


      A          D          Dsus2            Dsus4         D           
  S S E  S S S S E  S S S S E        S S S S E     S S S S E  S S S S  
--0-0-0--0-0-0-0-2--2-2-2-2-0-----|--0-0-0-0-3-----3-3-3-3-2--2-2-2-2-|
--0-0-2--2-2-2-2-3--3-3-3-3-3-----|--3-3-3-3-3-----3-3-3-3-3--3-3-3-3-|
--2-2-2--2-2-2-2-2--2-2-2-2-2-----|--2-2-2-2-2-----2-2-2-2-2--2-2-2-2-|
--2-2-2--2-2-2-2-0--0-0-0-0-0-----|--0-0-0-0-0-----0-0-0-0-0--0-0-0-0-|
--0-0-0--0-0-0-0------------------|-----------------------------------|
----------------------------------|-----------------------------------|
The old and the young                                       A very merry
Let’s stop all the fight
The old and the young


  G                                              A              
  E  S S S S E  S S S S E  S S    S S E  S S S S E  S S S S E   
--3--3-3-3-3-3--3-3-3-3-3--3-3-|--3-3-3--3-3-3-3-0--0-0-0-0-0--|
--3--3-3-3-3-3--3-3-3-3-3--3-3-|--3-3-3--3-3-3-3-2--2-2-2-2-2--|
--0--0-0-0-0-0--0-0-0-0-0--0-0-|--0-0-0--0-0-0-0-2--2-2-2-2-2--|
--0--0-0-0-0-0--0-0-0-0-0--0-0-|--0-0-0--0-0-0-0-2--2-2-2-2-2--|
--2--2-2-2-2-2--2-2-2-2-2--2-2-|--2-2-2--2-2-2-2-0--0-0-0-0-0--|
--3--3-3-3-3-3--3-3-3-3-3--3-3-|--3-3-3--3-3-3-3---------------|
    Christmas                   And a happy New Year


                                   Em7                    A       
  S S S S E  S S S S E  S S S S    E   S S S S E  S S S S E  S S  
--0-0-0-0-0--0-0-0-0-0--0-0-0-0-|--0---0-0-0-0-0--0-0-0-0-0--0-0-|
--2-2-2-2-2--2-2-2-2-2--2-2-2-2-|--3---3-3-3-3-3--3-3-3-3-2--2-2-|
--2-2-2-2-2--2-2-2-2-2--2-2-2-2-|--0---0-0-0-0-0--0-0-0-0-2--2-2-|
--2-2-2-2-2--2-2-2-2-2--2-2-2-2-|--2---2-2-2-2-2--2-2-2-2-2--2-2-|
--0-0-0-0-0--0-0-0-0-0--0-0-0-0-|--2---2-2-2-2-2--2-2-2-2-0--0-0-|
--------------------------------|--------------------------------|
              Let’s hope it’s a good one


                 D                        E7                       
  S S E  S S S S E  S S S S E     S S S S E  S S S S E  S S S S  3x
--0-0-0--0-0-0-0-2--2-2-2-2-2--|--2-2-2-2-0--0-0-0-0-0--0-0-0-0--||
--2-2-2--2-2-2-2-3--3-3-3-3-3--|--3-3-3-3-3--3-3-3-3-3--3-3-3-3--||
--2-2-2--2-2-2-2-2--2-2-2-2-2--|--2-2-2-2-1--1-1-1-1-1--1-1-1-1-*||
--2-2-2--2-2-2-2-0--0-0-0-0-0--|--0-0-0-0-2--2-2-2-2-2--2-2-2-2-*||
--0-0-0--0-0-0-0---------------|----------2--2-2-2-2-2--2-2-2-2--||
-------------------------------|---------------------------------||
     Without any fear


  A          Asus2         Asus4            A          Bm         Bsus2  
  E  S S S S E     S S S S E     S S    S S E  S S S S E  S S S S E      
--0--0-0-0-0-0-----0-0-0-0-0-----0-0-|--0-0-0--0-0-0-0-2--2-2-2-2-2-----|
--2--2-2-2-2-0-----0-0-0-0-3-----3-3-|--3-3-2--2-2-2-2-3--3-3-3-3-2-----|
--2--2-2-2-2-2-----2-2-2-2-2-----2-2-|--2-2-2--2-2-2-2-4--4-4-4-4-4-----|
--2--2-2-2-2-2-----2-2-2-2-2-----2-2-|--2-2-2--2-2-2-2-4--4-4-4-4-4-----|
--0--0-0-0-0-0-----0-0-0-0-0-----0-0-|--0-0-0--0-0-0-0-2--2-2-2-2-2-----|
-------------------------------------|----------------------------------|
  War is over                                          If you want it


          Bsus4         Bm            Esus4            E       Esus2      
  S S S S E     S S S S E  S S S S    E     S S S S E  S S S S E     S S  
--2-2-2-2-2-----2-2-2-2-2--2-2-2-2-|--0-----0-0-0-0-0--0-0-0-0-2-----2-2-|
--2-2-2-2-5-----5-5-5-5-3--3-3-3-3-|--0-----0-0-0-0-0--0-0-0-0-0-----0-0-|
--4-4-4-4-4-----4-4-4-4-4--4-4-4-4-|--2-----2-2-2-2-1--1-1-1-1-x-----x-x-|
--4-4-4-4-4-----4-4-4-4-4--4-4-4-4-|--2-----2-2-2-2-2--2-2-2-2-2-----2-2-|
--2-2-2-2-2-----2-2-2-2-2--2-2-2-2-|--2-----2-2-2-2-2--2-2-2-2-----------|
-----------------------------------|-------------------------------------|
                                      War is over


      E          A          Asus2            Asus4         A            
  S S E  S S S S E  S S S S E        S S S S E     S S S S E  S S S S   
--2-2-0--0-0-0-0-0--0-0-0-0-0-----|--0-0-0-0-0-----0-0-0-0-0--0-0-0-0-||
--0-0-0--0-0-0-0-2--2-2-2-2-0-----|--0-0-0-0-3-----3-3-3-3-2--2-2-2-2-||
--x-x-1--1-1-1-1-2--2-2-2-2-2-----|--2-2-2-2-2-----2-2-2-2-2--2-2-2-2-||
--2-2-2--2-2-2-2-2--2-2-2-2-2-----|--2-2-2-2-2-----2-2-2-2-2--2-2-2-2-||
------2--2-2-2-2-0--0-0-0-0-0-----|--0-0-0-0-0-----0-0-0-0-0--0-0-0-0-||
----------------------------------|-----------------------------------||
                   Now



Duration Legend
---------------
W - whole
H - half
Q - quarter
E - 8th
S - 16th
T - 32nd
X - 64th
. - note dotted
|-n-|  - n-tuplets


Tablature Legend
----------------
L - tied note
x - dead note
g - grace note
(n) - ghost note
> - accentuded note
NH - natural harmonic
AH - artificial harmonic
TH - tapped harmonic
SH - semi harmonic
PH - pitch harmonic
h - hammer on
p - pull off
b - bend
br - bendRelease
pb - preBend
pbr - preBendRelease
brb - bendReleaseBend
\n/ - tremolo bar dip
\n - tremolo bar dive
-/n - tremolo bar Release up
/n\ - tremolo bar inverted dip
/n - tremolo bar return
-\n - tremolo bar Release down
S - shift slide
s - legato slide
/ -  slide into from below or out of upwards
\ -  slide into from above or out of downwards
~ - vibrato
W - wide vibrato
tr - trill
TP - tremolo picking
T - tapping
S - slap
P - pop
< - fade in
^ - brush up
v - brush down

            
            
Suggest correction
Creating personal tab
Creating personal tab
You can edit any tab online and save it as your Personal.

You can edit, replace or remove any tab part or add personal notes – all changes will be seen only by you.

Personal tabs can be accessed anytime from any device, even offline.
Learn more »
Give kudos to tab author, rate the tab!
1 2 3 4 5
comments
print report bad tab
guest
Wanna post a correction for this tab? Suggest correction