Oops, an error
Loading. Please wait.

We Will Be Heroes - Pokemon Theme tab

506 views 6 this week
1 commentread comment
1 2 3 4 5
x 4
add to favorites
×
Save as Personal and add changes to this tab that will be seen only by you. Learn more ›
×
You can save this tab as Personal to edit and correct it or add notes. All changes will be seen only by you. Learn more »
launch autoscroll
font size
0
reset
how to read this tab
guitar tuner
edit
Autoscroll
slow
fast
+/-
esc
set tempo
stop
Author
-------------------------------------------------------------------------------
       We will be heroes (Pokémon battle dimension theme) - John Loeffler and David Wolfert
-------------------------------------------------------------------------------
Tabbed by: Bobbotronz
E-mail:

Tuning: Standard

This is the version they play just before an episode of season 11 pokemon (Battle
dimension). My first tab,
 so there could be a few errors. Feel free to tell me what they are :)
*Optional (The lyric is 'but', although you don't really hear it in the song.)

Verse:
e|--0---0---------0---0--------------2--2--------2--2--2---------------------|
B|----------0-------------0-----0*---------0--0-----------0------------------|
G|---------------------------------------------------------------------------|
D|---------------------------------------------------------------------------|
A|---------------------------------------------------------------------------|
E|---------------------------------------------------------------------------|

e|--4--2--0---0--4--2--0--2--------4--0--0--0--2-----------------------------|
B|---------------------------2-----------------------------------------------|
G|---------------------------------------------------------------------------|
D|---------------------------------------------------------------------------|
A|---------------------------------------------------------------------------|
E|---------------------------------------------------------------------------|
Chorus:
e|----4--2--0-----0----0-0-0--0-2--2--2--4--2------4--2--0-----0---0-0-0-0---|
B|-------------4--------------------------------------------4----------------|
G|---------------------------------------------------------------------------|
D|---------------------------------------------------------------------------|
A|---------------------------------------------------------------------------|
E|---------------------------------------------------------------------------|

e|----2--2--4--2-------4--2--0--7--2-----0-0-0--4---2---0----0-------------|
B|--------------------------------------------------------4------------------|
G|---------------------------------------------------------------------------|
D|---------------------------------------------------------------------------|
A|---------------------------------------------------------------------------|
E|---------------------------------------------------------------------------|
Suggest correction
Creating personal tab
Creating personal tab
You can edit any tab online and save it as your Personal.

You can edit, replace or remove any tab part or add personal notes – all changes will be seen only by you.

Personal tabs can be accessed anytime from any device, even offline.
Learn more »
comments
print report bad tab
1 comment total.
0 reply
Bobbotronz 33 Aug 31, 2015 09:16 AM

Damn, sorry guys, it's not right at the end. The last note should be a 0. I'll see if I can change it

guest
You may want to rate the tab now too:
select rating
Wanna post a correction for this tab? Suggest correction