Oops, an error
Loading. Please wait.

My Little Lamb Tab

196 views 1 this week
no commentswrite comment
1 2 3 4 5
3 more votes to show rating
add to favorites
launch autoscroll
font size
0
reset
how to read this tab
guitar tuner
Autoscroll
slow
fast
+/-
esc
set tempo
stop
Author
Difficulty
Capo
novice
5th fret
Tried to keep it as accurate as possible to the studio recording, but it's my first tab 
attempt by ear.

CAPO V

|--2--2----2--2----2--2----2--2----0--0----0--0----0--0----0--0--|
|--3--3----3--3----3--3----3--3----0--0----0--0----0--0----0--0--|
|--2--2----2--2----2--2----2--2----0--0----0--0----0--0----0--0--|
|0---------------0---------------0---------------0---------------|
|--------0---------------0---------------0---------------0-------|
|----------------------------------------------------------------|

 M pa pa M pa pa M pa pa M pa pa M pa pa M pa pa M
|--2--2----2--2----2--2----2--2----0--0----0--0----0--0----0--0--|
|--3--3----3--3----3--3----3--3----0--0----0--0----0--0----0--0--|
|--2--2----2--2----2--2----2--2----0--0----0--0----0--0----0--0--|
|0---------------0---------------0---------------0---------------|
|--------0---------------0---------------0---------------0-------|
|----------------------------------------------------------------|

 Don't say maybe my sweet baby    Don't be so eager to please
|--2--2----2--2----2--2----2--2----2--2----2--2----3--3----3--3--|
|--3--3----3--3----3--3----3--3----3--3----3--3----0--0----0--0--|
|--2--2----2--2----2--2----2--2----2--2----2--2----0--0----0--0--|
|0---------------0---------------0---------------0---------------|
|--------0---------------0---------------0-----------------------|
|--------------------------------------------------------3-------|

 He might be a standup guy till he wants you on your knees
|--3--3----3--3----2--2----2--2----0--0----0--0---------3--2--0--|
|--0--0----0--0----3--3----3--3----0--0----0--0------2-----------|
|--0--0----0--0----2--2----2--2----1--1----1--1----2-------------|
|0---------------0---------------0---------------2---------------|
|------------------------0---------------2-----------------------|
|--------3-------------------------------------------------------|

 Drinks after dark on beaches,in parks hopin' you'll give it a miss, cause
|--2--2----2--2----2--2----2--2----2--2----2--2----3--3----3--3--|
|--3--3----3--3----3--3----3--3----3--3----3--3----0--0----0--0--|
|--2--2----2--2----2--2----2--2----2--2----2--2----0--0----0--0--|
|0---------------0---------------0---------------0---------------|
|--------0---------------0---------------0-----------------------|
|--------------------------------------------------------3-------|

 your lips were only     made to blow........  a kiss.        It's
|--2--2----2--2----3--3----3--3----  0-------------2--2----2--2--|
|--3--3----3--3----0--0----0--0---- 2--------------3--3----3--3--|
|--2--2----2--2----0--0----0--0----2---------------2--2----2--2--|
|0-------------------------------2---------------0---------------|
|--------3-------2---------------------------------------0-------|
|------------------------3---------------------------------------|

 all a mistake it's yours to make and it's my heart that will break
|--2--2----2--2----3--3----3--3----0--0----0--0---------3--2--0--|
|--3--3----3--3----0--0----0--0----0--0----0--0------2-----------|
|--2--2----2--2----0--0----0--0----1--1----1--1----2-------------|
|0---------------0---------------0---------------2---------------|
|--------0-------------------------------2-----------------------|
|------------------------3---------------------------------------|

 I know it's yours to loose but it's my little lamb to take
|--2--2----2--2----3--3----3--3----0--0----0--0----2--2----2--2--|
|--3--3----3--3----0--0----0--0----2--2----2--2----3--3----3--3--|
|--2--2----2--2----0--0----0--0----2--2----2--2----2--2----2--2--|
|0---------------0---------------2-------------- 0---------------|
|--------0-------------------------------0---------------0-------|
|------------------------3---------------------------------------|


|--2--2----2--2----2--2----2--2----0--0----0--0----0--0----0--0--|
|--3--3----3--3----3--3----3--3----0--0----0--0----0--0----0--0--|
|--2--2----2--2----2--2----2--2----0--0----0--0----0--0----0--0--|
|0---------------0---------------0---------------0---------------|
|--------0---------------0---------------0---------------0-------|
|----------------------------------------------------------------|

 He'll  he'll   he'll   he'll  and
 prompt  need    beg     plead   promise you the world.    When the
|--2--2----2--2----2--2----2--2----2--2----2--2----3--3----3--3--|
|--3--3----3--3----3--3----3--3----3--3----3--3----0--0----0--0--|
|--2--2----2--2----2--2----2--2----2--2----2--2----0--0----0--0--|
|0---------------0---------------0---------------0---------------|
|--------0---------------0---------------0-----------------------|
|--------------------------------------------------------3-------|

 deed is done he'll slink away and you'll be left a alone to say - that
|--3--3----3--3----2--2----2--2----0--0----0--0----0--0----------|
|--0--0----0--0----3--3----3--3----0--0----0--0----2--2----------|
|--0--0----0--0----2--2----2--2----1--1----1--1----2--2----------|
|0---------------0---------------0---------------2---------------|
|------------------------0---------------2---------------0-------|
|--------3-------------------------------------------------------|

 you'll defend his honour, but you don't know him like I do.  Cause I
|--2--2----2--2----2--2----2--2----2--2----2--2----3--3----3--3--|
|--3--3----3--3----3--3----3--3----3--3----3--3----0--0----0--0--|
|--2--2----2--2----2--2----2--2----2--2----2--2----0--0----0--0--|
|0---------------0---------------0---------------0---------------|
|--------0---------------0---------------0-----------------------|
|--------------------------------------------------------3-------|

       and I     I      and I   when
 pushed  pleaded begged  needed  I was his age   too.         It's
|--2--2----2--2----3--3----3--3----0--0----0--0----2--2----2--2--|
|--3--3----3--3----0--0----0--0----2--2----2--2----3--3----3--3--|
|--2--2----2--2----0--0----0--0----2--2----2--2----2--2----2--2--|
|0-------------------------------2-------------- 0---------------|
|--------3-------2-----------------------0---------------0-------|
|------------------------3---------------------------------------|

 all a mistake it's yours to make and it's my heart that will break
|--2--2----2--2----3--3----3--3----0--0----0--0---------3--2--0--|
|--3--3----3--3----0--0----0--0----0--0----0--0------2-----------|
|--2--2----2--2----0--0----0--0----1--1----1--1----2-------------|
|0---------------0---------------0---------------2---------------|
|--------0-------------------------------2-----------------------|
|------------------------3---------------------------------------|

 I know it's yours to loose but it's my little girl he'll take.
|--2--2----2--2----3--3----3--3----0--0----0--0----2--2----2--2--|
|--3--3----3--3----0--0----0--0----2--2----2--2----3--3----3--3--|
|--2--2----2--2----0--0----0--0----2--2----2--2----2--2----2--2--|
|0-------------------------------2-------------- 0---------------|
|--------3-------2-----------------------0---------------0-------|
|------------------------3---------------------------------------|

 I know it's yours to loose but you're my little lamb to take.
|--2--2----2--2----3--3----3--3----0--0----0--0----2--2----2--2--|
|--3--3----3--3----0--0----0--0----2--2----2--2----3--3----3--3--|
|--2--2----2--2----0--0----0--0----2--2----2--2----2--2----2--2--|
|0-------------------------------2-------------- 0---------------|
|--------3-------2-----------------------0---------------0-------|
|------------------------3---------------------------------------|


|--2--2----2--2----2--2----2--2----0--0----0--0----0--0----0--0--|
|--3--3----3--3----3--3----3--3----0--0----0--0----0--0----0--0--|
|--2--2----2--2----2--2----2--2----0--0----0--0----0--0----0--0--|
|0---------------0---------------0---------------0---------------|
|--------0---------------0---------------0---------------0-------|
|----------------------------------------------------------------|

 M pa pa M pa pa M pa pa M pa pa M pa pa M pa pa
|--2--2----2--2----2--2----2--2----0--0----0--0--------------2---|
|--3--3----3--3----3--3----3--3----0--0----0--0-------------3----|
|--2--2----2--2----2--2----2--2----0--0----0--0------------2-----|
|0---------------0---------------0------------------------0------|
|--------0---------------0---------------0---------------0-------|
|----------------------------------------------------------------|
Suggest correction
Give kudos to tab author, rate the tab!
1 2 3 4 5
comments
print report bad tab
guest
You may want to rate the tab now too:
select rating
Wanna post a correction for this tab? Suggest correction