Oops, an error
Loading. Please wait.

Heart Bleeds ukulele

100 views 1 this week
no commentswrite comment
1 2 3 4 5
3 more votes to show rating
add to favorites
×
Save as Personal and add changes to this tab that will be seen only by you. Learn more ›
×
You can save this tab as Personal to edit and correct it or add notes. All changes will be seen only by you. Learn more »
launch autoscroll
font size
0
reset
transpose
0
reset
simplify chords
display chords
guitar tuner
edit
Autoscroll
slow
fast
+/-
esc
set tempo
stop
Strumming
There is no strumming pattern for this song yet. and get +5 IQ
John Mark McMillan
Heart Bleeds
From "Economy"
Tabbed by thatchadmiller (Twitter)


Capo 5

Intro
C
C - F - G


Verse 1
C                Dm           F               C
We could be revelling forever in the love You bring
C                      Dm         F            C
and we could be wasted on You and not count it loss


Pre Chorus
     Dm                  F               G
Like fools in love we're bound to make a scene


Chorus 1 
C           
Our hearts bleed for You, oh
G
Our hearts bleed for You whoa-oh-oh-oh
F                 G                    F    G
Our hearts bleed, our hearts bleed for You


Verse 2
We could burn down the days inside the light of Your face
We could throw the years away and not regret the price we pay

Pre Chorus

Chorus 2
C           
Our hearts bleed for You, oh
G
Our hearts bleed for You whoa-oh-oh-oh
F                 G                    C
Our hearts bleed, our hearts bleed for You


Solo over chorus 2 chords 


Bridge
Am             F                  C     G/B
You have loved alive the dead and gone
Am                 F                    Em   G
Filled our thirsty veins with blood and song

Chorus 2


Intro/Solo
e|-----------8---------------------------------------------------------|
B|--10~~~-10---8------8-10-8--------8-10-8----8---8-10-8---------------|
G|---------------------------10-7----------10------------10-10~~~------|
D|---------------------------------------------------------------------|
A|---------------------------------------------------------------------|
E|---------------------------------------------------------------------|



Chorus 2 second time (play with a slide)
e|--------13-----------------------------------------------------------|
B|--13~~~----13<<8~~~--------------------------------------------------|
G|---------------------9-10-9-7-3~~~----5~~----------------------------|
D|-----------------------------------3-5~~~-5<<3~~~--------------------|
A|---------------------------------------------------------------------|
E|---------------------------------------------------3-5-3-1—3h5-3-1---|

Then play the intro/solo over verse chords


If you have any input or corrections, check out my blog for more info and 
let me know if you have any songs you need help with. God bless!

            
            
Suggest correction
Creating personal tab
Creating personal tab
You can edit any tab online and save it as your Personal.

You can edit, replace or remove any tab part or add personal notes – all changes will be seen only by you.

Personal tabs can be accessed anytime from any device, even offline.
Learn more »
Give kudos to tab author, rate the tab!
1 2 3 4 5
comments
print report bad tab
guest
Wanna post a correction for this tab? Suggest correction