Oops, an error
Loading. Please wait.

Cocaine tab

13,136 views 39 this week
1 commentread comment
1 2 3 4 5
x 4
add to favorites
×
Save as Personal and add changes to this tab that will be seen only by you. Learn more ›
×
You can save this tab as Personal to edit and correct it or add notes. All changes will be seen only by you. Learn more »
launch autoscroll
font size
0
reset
how to read this tab
guitar tuner
edit
Autoscroll
slow
fast
+/-
esc
set tempo
stop
Standard tuning. Capo 5th.

TAB for Cocaine by Andy Stephen, September 1999. (gffwillie@guitarfreaksforum.com)
-------------------------------------------------------------------------------------------------

Amin                       E         Amin                             E        Amin

E-----0--------------|--------------------|-----0--------------|--------------------|
B----------1-------1-|----------0---------|----------1-------1-|----------0---------|
G-----2--------------|-----0h1-----1-0h2--|-----2--------------|-----0h1-----1-0h2--|
D------------2-------|-2----------2-------|------------2-------|-2----------2-------|
A-0------------------|-----------------0--|--------------------|-----------------0--|
E--------3-------1---|-------0------------|--------3-------1---|-------0------------|
Did     story about            She had a
you hear a       Cocaine     Lill?     cocaine     house on cocaine    hill.


Amin                       E         Amin                             E        Amin

E-----0--------------|--------------------|-----0--------------|--------------------|
B----------1-------1-|----------0---------|----------1-------1-|----------0---------|
G-----2--------------|-----0h1-----1-0h2--|-----2--------------|-----0h1-----1-0h2--|
D------------2-------|-2----------2-------|------------2-------|-2----------2-------|
A--------------------|-----------------0--|--------------------|-----------------0--|
E--------3-------1---|-------0------------|--------3-------1---|-------0------------|
She'd a          cocaine     cat       She even    had a   cocaine     rat    And it's
           cocaine dog 'n a


Amin                       E          Amin                             E

E-----0--------------|--------------------|-----0--------------|--------------------|
B----------1-------1-|----------0---------|----------1-------1-|----------0---------|
G-----2--------------|-----0h1-----1-0h2--|-----2--------------|-----0h1-------1----|
D------------2-------|-2----------2-------|------------2-------|-2----------2-------|
A--------------------|-----------------0--|--------------------|--------------------|
E--------3-------1---|-------0------------|--------3-------1---|-------0------------|
 all......                   round my   brain

C

E------3---------3---|--------3-------0---|--------------------|-----------0--------|
B--1--------1--------|---1--------1-------|-3~-------1-------1-|-------1h3---3~---1-|
G----0---------0-----|------0-------0-----|-----0-h2-----0h2---|--0h2-----------2---|
D--------------------|--------------------|------------3------3|---------3---3------|
A-3-------3----------|--3--------3-------3|--------------------|------------------3-|
E--------------------|--------------------|-----1--------1-----|--1---------1-------|
Bin walkin round 10th street  and   Main;  Bin looking for a girlie to give
                                                                    me cocaine.

           G                    C

E-0--3-----0----0---3|---0-----------0----|---------3----------|--------------------|
B-------------3------|------3---1------1--|--------------1-----|--------------------|
G-0-------------0----|-------------0------|---------0-------00-|--------------------|
D--------------------|------0-------------|---0----------------|--------------------|
A------3-------------|----------3---------|------3------3------|--------------------|
E----------3---------|-3------------------|--------------------|--------------------|
Cocaine    sure runnin round my brain.

Repeat for next section


E----0--------3--0---|-0------------------|-----------0--------|0-3---------------------|
B------3--0--------3~|----------1-------1-|-------1h3---3~---1-|----0-----0-1-5-4-3---1-|
G--0h1---------------|-----0-h2-----0h2---|--0h2-----------2---|0------0h2----------0---|
D------2------2----2-|------------3------3|---------3---3------|------0---0---5-4-3-----|
A--------------------|--------------------|------------------3-|------------3---------3-|
E-0---------0-----0--|-----1--------1-----|--1---------1-------|----3---------------3---|
Hey baby,             This old cocaine's making me sick,       Cocaine....
     please come quick,

            
            
Suggest correction
Creating personal tab
Creating personal tab
You can edit any tab online and save it as your Personal.

You can edit, replace or remove any tab part or add personal notes – all changes will be seen only by you.

Personal tabs can be accessed anytime from any device, even offline.
Learn more »
comments
print report bad tab
1 comment total.
0 reply
tailcoat 10 Jan 02, 2015 03:54 AM

Capo on 5

e ----0---------|----------------|-----0--------|----------------|
B ---------1--1-|---1------0-----|---------1--1-|---1------0-----|
G ----2---------|------0h1-----0-|h2-2----------|------0h1-----0-|
D ----------2---|----2-------2---|----------2---|----2-------2---|
A -0------------|----------------|-0------------|----------------|
E -------3------|-1------0-------|-------3------|-1------0-------|
[Intro]

e ----0---------|----------------|-----0--------|----------------|
B ---------1--1-|---1------0-----|---------1--1-|---1------0-----|
G ----2---------|------0h1-----0-|h2-2----------|------0h1-----0-|
D ----------2---|----2-------2---|----------2---|----2-------2---|
A -0------------|----------------|-0------------|----------------|
E -------3------|-1------0-------|-------3------|-1------0-------|
D?you hear the story ?bout Cocaine Lil?
She had a Cocaine House on Cocaine Hill,

e ----0---------|----------------|-----0--------|----------------|
B ---------1--1-|---1------0-----|---------1--1-|---1------0-----|
G ----2---------|------0h1-----0-|h2-2----------|------0h1-----0-|
D ----------2---|----2-------2---|----------2---|----2-------2---|
A -0------------|----------------|-0------------|----------------|
E -------3------|-1------0-------|-------3------|-1------0-------|
She had a Cocaine Dog and a Cocaine Cat,
She even had a Cocaine Rat

e ----0---------|----------------|-----0--------|----------------|
B ---------1--1-|---1------0-----|---------1--1-|---1------0-----|
G ----2---------|------0h1-----0-|h2-2----------|------0h1-----0-|
D ----------2---|----2-------2---|----------2---|----2-------2---|
A -0------------|----------------|-0------------|----------------|
E -------3------|-1------0-------|-------3------|-1------0-------|
And it?s all? ?round my brain?

e ------3-----3-|------3-----0-|------------------|-------0-------|
B ---1-----1----|---1-----1?-h3|------1-------1---|-1-h3-----3----|
G ----0-----0---|----0-----0---|--------2--0h2----|-------------2-|
D --------------|--------------|----------------3-|-----3---?-3---|
A -3-----3------|-3-----3------|------------------|---------------|
E --------------|--------------|-0h1-----1--------|-1------1------|
Been walkin? round 10th Street and Main
I been lookin? for a girlie to give me cocaine,

e ----0-3-----0-|----0-3--0----|------0-------|------3-----3-|
B -1-------1----|---3--------3-|---------1----|---------1----|
G ----0-----0---|----0-----0---|----0-------0-|----0---------|
D --------------|--------------|----------2---|--------------|
A -3-----3------|--------------|-3------------|-3-----3--3---|
E --------------|-3-----3------|--------3-----|--------------|
Cocaine?s sure running round my brain.

e ------3-----3-|------3-----0-|------------------|-------0-------|
B ---1-----1----|---1-----1?-h3|------1-------1---|-1-h3-----3----|
G ----0-----0---|----0-----0---|--------2--0h2----|-------------2-|
D --------------|--------------|----------------3-|-----3---?-3---|
A -3-----3------|-3-----3------|------------------|---------------|
E --------------|--------------|-0h1-----1--------|-1------1------|
Been strollin? round 10th Street and Main
Been lookin? for someone to give me cocaine,

e ----0-3-----0-|----0-3--0----|------0-------|----3---------|
B -1-------1----|---3--------3-|---------1----|---------1----|
G ----0-----0---|----0-----0---|----0-------0-|----------0-0-| da capo
D --------------|--------------|----------2---|----2---------|
A -3-----3------|--------------|-3------------|-3-----3------|
E --------------|-3-----3------|-------3------|--------------|
Cocaine?s sure running round my brain.

Well, Cocaine Lil and Morphine Sue
They've been strolling down the avenue two by two
Says Lil to Sue, ?It's gonna do no harm
If we both have a little old shot in the arm?
And it's all round my veins, oh cocaine

Doctor tell me again and again
He say, ?Cocaine's forces ain't for men?
Cocaine's sure running round my brain

You know the doctor tell me, tell me again and again
He say, ?Cocaine'll kill you son, it won't say when?
Cocaine's sure running round my brain

There?s a story about Cocaine Lil
She had a Cocaine House on Cocaine Hill
She had a Cocaine Dog and a Cocaine Cat
She even had a Cocaine Rat
And it's all round my brain

Yonder's baby, she's dressed in white
I said, ?Hey now mama, gonna stay all night?
Cocaine's sure running round my brain

Now there runs my baby, she's all dressed in black
You said you know I didn't mean it, won't you please come back

e ----0-3-----0-|----0-3--0----|------0-------|------3-------|
B -1-------1----|---3--------3-|---------1----|---------1----|
G ----0-----0---|----0-----0---|----0-------0-|----0-------1-|
D --------------|--------------|----------2---|----------2---|
A -3-----3------|--------------|-3------------|-3-----3------|
E --------------|-3-----3------|--------3-----|--------------|

Co

guest
You may want to rate the tab now too:
select rating
Wanna post a correction for this tab? Suggest correction