Oops, an error
Loading. Please wait.

Head And Heart tab

version 2
version 2

Whole song

Interactive

724 views 3 this week
no commentswrite comment
1 2 3 4 5
1 last vote to show rating
add to favorites
×
Save as Personal and add changes to this tab that will be seen only by you. Learn more ›
×
You can save this tab as Personal to edit and correct it or add notes. All changes will be seen only by you. Learn more »
launch autoscroll
font size
0
reset
how to read this tab
guitar tuner
edit
Autoscroll
slow
fast
+/-
esc
set tempo
stop
Author
-----------------------------------------------------------------
                 Head And Heart - John Martyn
-----------------------------------------------------------------

Tabbed By : Aeonoptic
e-mail: aeonoptic@gmail.com

Tuning: BADGAD

x = thumb slap

  Bmin(b6)                 Bmin
E|-----------------0-----4|-------------0-------0-0-----4|
B|-----------0-----0---0--|-----------------------------0|
G|------6----0-----0---0--|--------6---------------------|
D|--5/7---7--0-----0---0--|----5/7---7--4-4-----4-4---4--|
A|0----------2---2-----2--|--0----------2-------2-2---2--| x4
E|-------------x-----x----|x------------0-x-0-0-----x----|

Chorus
  Bmin                        Esus2
E|---------4-4-----4------4-4|------------------4--4-4|------------0-------4---4|
B|-----------0---0--------0-0|------------------0--0-0|------------0-----0-----0|
G|---------------------------|--7---------------------|------------0------------|
D|4-5-7-4--4-----4------4----|4---5-4-----------------|5/7----------------------|
A|---------2---2-2------2----|---------------5--------|----7\----------2-----2--|
E|----x------x-------x--0---x|----x----5-x-5-5--x-----|-------x-0----x----------|

E|---------4---|------------------4--|
B|---------0---|----------------0-0--|
G|-------------|----------------0-0--|
D|-------4-----|----0h2---------0----|
A|--1/2--2-----|5-------0h2-5---5----|
E|x------0----x|5-x-----------x-----x|

Under vocals this remains similar throughout, but in instrumental sections
he does noodle a bit:

E|--------------0-------0--0-0|-------------------0-------------|----------------0---0-0---5/7-12-12|
B|----------------------0--0-0|-------------------0-------------|----------------0---0-0---5/7-12-12|
G|------2---------------------|----------2----------------------|------------2----------------------|
D|--2/4---4-2-4-----2h4-------|------4/5---4-2------------0-2-2~|------2-4/5------------------------|
A|2---------------------------|----2------------------0h2-------|12\--------------------------------|
E|----------------x-----------|x-x-------------0----x-----------|----x---------x---x-----x-----x----|

E|--12------------------------0-4|
B|-12--12---------------------0-0|
G|12--------0-2---------------0-0|
D|--------------3/4-4---2-2------|
A|--------------1/2-2---2-2------|
E|--------x-----------x-----x----|

then later:

E|-----------------------4-4|---------------------4|-------------------|-----------------|
B|----------0-0---0---0--0-0|---------------------0|-------------------|------0-0---0-0--|
G|----2-----0-0---0---0-----|--------6-------0-0---|----2-2---2-----2/4|4p2---0-0---0-0--|
D|4/5-------0-0---0---------|6/7-7-7---------0-0---|--------4---2h4----|------0-0---0-0--|
A|--------2-----2-----2-----|----------4/5-0-2-2---|0h2----------------|----2-----2------|
E|------x-----x-----x------x|----------x----------x|-------------------|--------x-------x|

E|------------------0-----0----|--------4-4----|---------------------------|--------------0|
B|0----------------------------|--------0-0----|---------------------------|--0-0-0-0-0---0|
G|0----------------------------|--------0-0----|---------------------------|--0-0-0-0-0----|
D|0h4---------0-------7/9---9\7|----4---------4|----0-----0-----0-----0----|--0-0-0-0-0----|
A|2---2h4-4/5---5/7------------|2-0-----2-2---2|2h4---2h4---2h4---2h4---2h4|2--------------|
E|-----------------------------|------x-----x-0|---------------------------|------------x--|

E|---------------------------|-----------------|---------------------|-------------------|
B|----------0-----0-----0----|-----------------|----0---------2/4-4-4|--------0---0-0-0-0|
G|---------------------------|--------------2--|---------------------|--------0---0-0-0--|
D|----0----------------------|--4-4---4-4---4--|2/4---4-5/7-7--------|--0-----0---0-0-0--|
A|2h4---2h4---2h4---2h4---4\2|2-2-2---2-2---2--|---------------------|----2-0------------|
E|---------------------------|------x-----x---x|---------------------|x---------x-----x--|

E|------0h2----------------------|----------------|---------------------|----0-----------0-0-|
B|0h4-4-----0---------0----------|0----------0----|--0-0----------------|----0---0-0-----0---|
G|-------------------------------|----------------|0-------------2------|----0---0-0-----0---|
D|------------------4---4p0---4--|4---4-4----4---4|------4---4-------5\4|4-4---------4-------|
A|------------0---x---------5---2|2---2-2----2----|---------------------|2-2-----------2-----|
E|--------------x----------------|--x-0-0-x----x--|--------x---x---x----|0-0---x-----x---x---|

E|------------------|------------0|----------------0-----0----|----------------4|
B|------------------|-------------|----0-----0-------0h2---2p0|----0---0-0---0--|
G|--2-2------2-2----|-------------|---------------------------|----0------------|
D|4-----4--4-----5p4|4---4-4---4--|------------2/4------------|----0---4-4---4--|
A|------------------|2---2-2---2--|2/4---4/5------------------|0-2-----2-----2--|
E|------------------|0-0-----x----|---------------------------|------x-----x----|

E|---------------------------|
B|----0-------0h4-4-4/7-7-7p0|
G|---------------------------|
D|2/4---4/7-7----------------|
A|---------------------------|
E|---------------------------|

The rest of the song is basically just variations of this.


| /  slide up
| \  slide down
| h  hammer-on
| p  pull-off
| ~  vibrato
| +  harmonic
| x  Mute note

            
            
Suggest correction
Creating personal tab
Creating personal tab
You can edit any tab online and save it as your Personal.

You can edit, replace or remove any tab part or add personal notes – all changes will be seen only by you.

Personal tabs can be accessed anytime from any device, even offline.
Learn more »
Give kudos to tab author, rate the tab!
1 2 3 4 5
comments
print report bad tab
guest
You may want to rate the tab now too:
select rating
Wanna post a correction for this tab? Suggest correction