Oops, an error
Loading. Please wait.

When Its Dark tab

196 views 1 this week
no commentswrite comment
1 2 3 4 5
3 more votes to show rating
add to favorites
×
Save as Personal and add changes to this tab that will be seen only by you. Learn more ›
×
You can save this tab as Personal to edit and correct it or add notes. All changes will be seen only by you. Learn more »
launch autoscroll
font size
0
reset
how to read this tab
guitar tuner
edit
Autoscroll
slow
fast
+/-
esc
set tempo
stop
[Verse]
  Badd11                                    Badd9add11
D|------------------|----------------------|----------------|
A|------------------|----------------------|-----6-------6--|
G|8-----------------|----8-8----8-------8-8|----6--------6--|
D|9-----------------|----9-9---9--------9-9|---9---------9--|
A|7------9-7---7h9-9|---------7---7--------|--7----9--------|
D|9--x-9-----x------|x-9---x-9------x-9-9-x|9--------x-9---x|

The verses are essentially the same as the intro, alternating between the two shapes
with percussive slaps on the 2nd and 4th beat and raked arpeggiations:

[Verse]

  Badd11       Badd9add11
D|------------|----------|
A|------------|6---------|
G|8-----------|6---------|
D|9-----------|9---------|
A|7-----------|7---------|
D|9-----------|9---------|

Similarly:

[Chorus]

  C#m7     Badd11   F#m7  G#m7  F#m7  G#m7  F#m7  G#m7  F#m7
D|----------------------------------------------------------|
A|----------------------------------------------------------|
G|9--------8--------2-----4-----2-----4-----2-----4-----2---|
D|9--------9--------2-----4-----2-----4-----2-----4-----2---|
A|---------7------------------------------------------------|
D|11-------9--------4-----6-----4-----6-----4-----6-----4---|

This is the same throughout the entire song, except the very end which skips the first 
two chords in the chorus

*******************************************************

| h  hammer-on
| x  Mute note

*******************************************************

            
            
Suggest correction
Creating personal tab
Creating personal tab
You can edit any tab online and save it as your Personal.

You can edit, replace or remove any tab part or add personal notes – all changes will be seen only by you.

Personal tabs can be accessed anytime from any device, even offline.
Learn more »
Give kudos to tab author, rate the tab!
1 2 3 4 5
comments
print report bad tab
guest
You may want to rate the tab now too:
select rating
Wanna post a correction for this tab? Suggest correction