Oops, an error
Loading. Please wait.

Quantum Leap Bass Tab

43 views 1 this week
no commentswrite comment
1 2 3 4 5
3 more votes to show rating
add to favorites
launch autoscroll
font size
0
reset
guitar tuner
Autoscroll
slow
fast
+/-
esc
set tempo
stop
Help us to improve Ultimate-Guitar.com Take our survey!
×
Author
Difficulty
novice
[Intro]

G|----------------|----------------|----------------|----------------| (x2)
D|----------------|----------------|----------------|----------5--5--|
A|--5-5-5-5-6--6--|--5-5-5-5-8--8--|--5-5-5-5-6--6--|--5-5-5-5-------|
E|----------------|----------------|----------------|----------------|


G|-------------|----------------|-------------|----------------|
D|---5--3--3-3-|-------1--1-1-0-|---5--3--3-3-|-------1--1-1-0-|
A|-------------|-1-1-1----------|-------------|-1-1-1----------|
E|-------------|----------------|-------------|----------------|


[Verse 1]

G|-------------|----------------|-------------|----------------| (x3)
D|---5--3--3-3-|-------1--1-1-0-|---5--3--3-3-|-------1--1-1-0-|
A|-------------|-1-1-1----------|-------------|-1-1-1----------|
E|-------------|----------------|-------------|----------------|


G|-------------|----------------| 
D|---5--3--3-3-|-------1--1-1-0-|
A|-------------|-1-1-1----------|
E|-------------|----------------|


[Pre-Chorus]

G|-------------|----------------|-------------|----------------|-------------|----------------| 
D|---5---------|-------1--1-1-0-|---5---------|-------1--1-1-0-|---5---------|-------1--1-1-0-|
A|------1--1-1-|-1-1-1----------|------1--1-1-|-1-1-1----------|------1--1-1-|-1-1-1----------|
E|-------------|----------------|-------------|----------------|-------------|----------------|


[Chorus]

G|----5-3-5----|----3------|-----8-8-8----|----5---5---5---| (x4)
D|-------------|------3-3--|--------------|-6----6---6---6-|
A|-3---------3-|-1---------|--6---------6-|----------------|
E|-------------|-----------|--------------|----------------|


[Interlude]

G|----5-3-5----|----------------|-----------------|-----------------|-----------------|
D|-------------|----------------|-------------1-1-|-3-3-3-3-3-3-3-3-|-3-3-3-3-3-3-3-3-|
A|-3---------3-|-1-1--1-1-1-1-1-|-1-1-1-1-1-1-----|-----------------|-----------------|
E|-------------|----------------|-----------------|-----------------|-----------------|


G|-----------------|------------------|-------------------------|-------------------------|
D|-----------------|------------------|-------------------------|-------------------------|
A|-3-3-3-3-3-3-3-3-|-3-3-3-3-3-3-3-3/-|-10-10-10-10-10-10-10-10-|-10-10-10-10-10-10-10-10-|
E|-----------------|------------------|-------------------------|-------------------------|


G|--------------------|----------------|-------------|----------------|
D|--------------------|----------------|---5--3--3-3-|-------1--1-1-0-|
A|-10-10-10-10-8--8-8-|-------6--6-6-5-|-------------|-1-1-1----------|
E|--------------------|-6-6-6----------|-------------|----------------|


[Verse 2]

G|-------------|----------------|-------------|----------------| (x3)
D|---5--3--3-3-|-------1--1-1-0-|---5--3--3-3-|-------1--1-1-0-|
A|-------------|-1-1-1----------|-------------|-1-1-1----------|
E|-------------|----------------|-------------|----------------|


G|-------------|----------------| 
D|---5--3--3-3-|-------1--1-1-0-|
A|-------------|-1-1-1----------|
E|-------------|----------------|


[Pre-Chorus]

G|-------------|----------------|-------------|----------------|
D|---5---------|-------1--1-1-0-|---5---------|-------1--1-1-0-|
A|------1--1-1-|-1-1-1----------|------1--1-1-|-1-1-1----------|
E|-------------|----------------|-------------|----------------|


G|---------------|----------------|----------------|----------------| (x2)
D|---------------|----------------|----------------|----------5--5--|
A|-5-5-5-5-6--6--|--5-5-5-5-8--8--|--5-5-5-5-6--6--|--5-5-5-5-------|
E|---------------|----------------|----------------|----------------|


[Chorus]

G|----5-3-5----|----3------|-----8-8-8----|----5---5---5---| (x4)
D|-------------|------3-3--|--------------|-6----6---6---6-|
A|-3---------3-|-1---------|--6---------6-|----------------|
E|-------------|-----------|--------------|----------------|


[Outro]

G|----5-3-5----|-----------------|
D|-------------|-----------------|
A|-3---------3-|-1-1--1-1-1-1-1--|
E|-------------|-----------------|



*************************

| / : slide up

*************************

in regular sequence!
Suggest correction
Give kudos to tab author, rate the tab!
1 2 3 4 5
comments
print report bad tab
guest
You may want to rate the tab now too:
select rating
Wanna post a correction for this tab? Suggest correction