Oops, an error
Loading. Please wait.

Age Of Worry intro tab

version 3
version 3

Intro

  • Hey Guys, I don't know where I got this version fr... Show more

Whole song

Interactive

22 views 1 this week
no commentswrite comment
1 2 3 4 5
3 more votes to show rating
add to favorites
×
Save as Personal and add changes to this tab that will be seen only by you. Learn more ›
×
You can save this tab as Personal to edit and correct it or add notes. All changes will be seen only by you. Learn more »
launch autoscroll
font size
0
reset
how to read this tab
guitar tuner
edit
Autoscroll
slow
fast
+/-
esc
set tempo
stop
About this tab version
Hey Guys, I don't know where I got this version from, but I definitely didn't come up with it myself. Since I noticed that it wasn't already tabbed out, I decided to write it down for you. It may not be the way John plays it, but as you can see in the other tabs, there are a lot of notes that can be played with open strings instead of fret notes. You will notice that it fits quite well and IMHO, this may be a bit more intuitive and at the end easier because you don't have to grab as much with the left hand compared to the other versions. Basically, grab it like your normal G or C chord position. I put a few fingering tips on top of the tab. Was this info helpful? Yes No
[Intro]
                   2
   3       4       3                                  2
e|-----0---------------------------------------------------------------------|
B|-0-------3---0-------0---------------------0---0---------------------------|
G|-----------------2-------0---2-------0-0-----------2-----------------------|
D|---------0-0---0-----------------2-----------------0-----------------------|
A|-----------------3-3---3-3-3---3-3-3---3-3---3-----------------------------|
E|-3-3---3---------------------------------------3-3-------------------------|
                  
                       4             1   2
e|-----0---------------------------------------------------------------------|
B|-0-------3---0---------------------1-0-------------------------------------|
G|-----------------2---4p2-0---2---------2---2---0---0-----------------------|
D|---------0-0---0-----------------2-----0-0---0---0-------------------------|
A|-----------------3-3---3-3-3---3-3---3-------------------------------------|
E|-3-3---3---------------------------------------3-3-3-----------------------|


************************************

| p   Pull-off

************************************

            
            
Suggest correction
Creating personal tab
Creating personal tab
You can edit any tab online and save it as your Personal.

You can edit, replace or remove any tab part or add personal notes – all changes will be seen only by you.

Personal tabs can be accessed anytime from any device, even offline.
Learn more »
Give kudos to tab author, rate the tab!
1 2 3 4 5
comments
print report bad tab
guest
Wanna post a correction for this tab? Suggest correction