Oops, an error
Loading. Please wait.

Age Of Worry Tab

version 2
version 2

Whole song

Interactive

36,437 views 18 this week
3 commentsread comments
1 2 3 4 5
excellent!
x 16
add to favorites
launch autoscroll
font size
0
reset
how to read this tab
guitar tuner
Tab Pro tools
  • play this tab
  • loop segment
  • change instrument
  • show fretboard
  • metronome
×
Best way to learn
"Age Of Worry"
Autoscroll
slow
fast
+/-
esc
set tempo
stop
Contributor
Difficulty
intermediate
Hello Ultimate-Guitar! New John Mayer song that I found on the net last night, so 
this tab might be a little rusty but i'm pretty sure I got it completely right, 
and it sounds fine to me :D

Note: The bass notes are playing progressive quavers/quarter notes.

E|-----------------------------------------------|
B|-------5----3----------------0-----------------|
G|-4----------------4----2-----------0-----2-----|
D|------------0---0---0--------------------------|
A|-----------------------3---3---3---3---3---3---|
E|-3---3---3-------------------------------------|

E|-----------------------------------------------|
B|-----------------------------------------------|
G|-------0-----0-----4-----4-----------2---------|
D|-2-----------------------------------0---0---0-|
A|-3---3---3---3---3---3-------------------------|
E|-------------------------3---3---3-------------|

E|-----------------------------------------------|
B|-------5----3----------------0-----------------|
G|-4----------------4----2-----------0-----2-----|
D|------------0---0---0--------------------------|
A|-----------------------3---3---3---3---3---3---|
E|-3---3---3-------------------------------------|

E|-----------------------------------------------|
B|-----------------------------------------------|
G|-----5---4---2-------0---0-----------0---------|
D|-2-----------0---0---0---------0---------------|
A|-3---3---3-------------------------------------|
E|-------------------------3---3---3---3---------|

               B|-----------------
This bit here: G|-----5---4---2--- is a bit of a stretch, but if you like you 
               D|-2-----------0--- can play it like this shown below
               A|-3---3---3-------

               B|-----1---0------- 
               G|-------------2--- both the same thing, but the version at 
               D|-2-----------0--- the top sounds a lot warmer than this one
               A|-3---3---3------- on the left

And that's the whole song, hope it's ok for you guys! Rate and comment please!

Peace
comments
print report bad tab
3 comments total.
+1 reply
jonrovira wrote on May 23 2012, 02:12 pm

Thanks so much! This is great.
I believe that at the end of the second line, however, instead of playing a D for the bass line, it should be an F# on the low E string.

0 reply
Darkdruid wrote on March 29 2013, 06:01 pm

Great Tab; great song! Although I think you're missing just ONE note on the first line so it should read something like

E|-----------------------------------------------|
B|-------5----3----------------0-----------------|
G|-4----------------4----2-------2---0-----2-----|
D|------------0---0---0--------------------------|
A|-----------------------3---3---3---3---3---3---|
E|-3---3---3-------------------------------------|

Great job!

0 reply
Darkdruid wrote on March 29 2013, 06:05 pm

Sorry, I'm not sure how to edit my comment but I meant:

E|-----------------------------------------------|
B|-------5----3----------------0-----------------|
G|-4----------------4----2-----------0-----2-----|
D|------------0---0---0----------2---------------|
A|-----------------------3---3---3---3---3---3---|
E|-3---3---3-------------------------------------|

I want to post or [tab]
guest
You may want to rate the tab now too:
select rating
Please do not post tabs as comments. Select "correction" instead!