Oops, an error
Loading. Please wait.

Assassin Bass Tab

version 1
version 1

Whole song

Interactive

2,217 views 6 this week
no commentswrite comment
1 2 3 4 5
2 more votes to show rating
add to favorites
launch autoscroll
font size
0
reset
guitar tuner
Autoscroll
slow
fast
+/-
esc
set tempo
stop
Help us to improve Ultimate-Guitar.com Take our survey!
×
Author
Difficulty
novice
-----------------------------------------------------------------
                                Assassin - John Mayer
-----------------------------------------------------------------
Tabbed By: n00bzilla99
Tuning: Standard (EADG)

Intro (0:00)
G|----REST----|          
D|----REST----| THEN     
A|----REST----|   
E|----REST----|        

G|------------|
D|------------|
A|------------|
E|--7~~~~~~~~-|

Verse 1 (0:11)
G|-----------9----------------------------------------------------------------------|
D|---------9------------------------------------------9h11---8-7-7------7-----------|
A|-------7------------5-5---------------------------9---------------------7---------|
E|-0-0-----------------------------0-3-5-6--7-----7---------------------------------|

G|----------------------------------------------------------------------------------|
D|-----------------------------5---5------------9-----9-----------------------------|
A|---------------------------5---5------------7---------9---------------------------|
E|-0-0-----0-0h2-0---0-2-3-------------0----7-------------7-5-----0-5-x-5-x-5-3-----|

G|-----------9----------------------------------------------------|
D|---------9---------9----7----------------7h9------------7-------|
A|-------7---------9--------5------------7------------------7h9---|
E|-0-0-----------7------------5----0-0-------------7-7----------7-|

G|----------------------------------------------------------------|
D|----------------------------------------------------------------|
A|-----------7h9-----------------------------5h7-----------5h7----|
E|-0-0-----7-------7-7---x-5-5-----3-------0-----7-3-5---0-----5-5|

Interlude 1 (1:00)
G|-----------------------------------------|
D|-----------------------------------------|
A|----------------------5------------------|
E|-7---5h7-7-7~~---3--3---0----0--------| x2

G|-----------------------------------------|
D|-----------------------------------------|
A|-2~~~~~~~~~~~---2~~~~~~~~~~~-2~~~~-------|
E|--------------0--------------------------|

Repeat Verse 1 (1:18)

Chorus (2:06)
G|-----------------------------------------|
D|-----------------------------------------|
A|---------5---5-5--5-5--------------------|
E|-7-x-7-7--------------3-x-3-3-0---0-0-2-2| x4

Verse 2 (2:30)
G|----------------------------------------------------------------------------------|
D|----------------------------------------------------------------------------------|
A|----------------------------------------------------------------16~~16/-----------|
E|-5~~~~~~-------3~~~~~~-5-6----------------7~~~~~~-------5~~~5\12------------------|

G|-------------------------------------------------------------7--------------------|
D|-----------------------------------------------------------4----7-----------------|
A|-----------------5---------------------------------------2--------7---------------|
E|-5~~~~~~~------5---2-3~~~~~~-5-6----------7~~~~~~~-----2------------5~~~~~~-------|

G|----------------------------------------------------------------------------------|
D|----------------7-----------------------------------------------------------------|
A|--------------5---------------------------------------------16---12---------------|
E|-5~~~~~~~---------3~~~~~~~-5h6------------7~-----------5~-----------12------------|

G|----------------------------------------------------------------------------------|
D|-----------------------------------------------------9---7~-----------------------|
A|---------------------------------------------------9---9---------5-6--------------|
E|-5~~~~~~~-----3~~~~~~-5-6-----------------7~-------------------7------------------|

Guitar Solo (3:18)
G|----------------------------------------------------------------------------------|
D|----------------------------9---9-9-7---9--------------------------9---9-7-7--7-9-|
A|-7------------2-----------9--------------------------------------9----------------|
E|---0---0-0--0---0-3-5-6-7-----------------0-0---0-0--0---4-5-6-7------------------|

G|---------------------------------------------------------------------------------------------|
D|--------------------------9---9-7-7--7-9------------------------------------7--7-7-----------|
A|------------------------9-------------------------------------------------7--------7---------|
E|-0-0---0-0--0---4-5-6-7------------------3--3-3-3--3-333333333-5-5-5--5-5------------5-5-5-6-|

Chorus 2 (3:42)
G|-----------------------------------------|
D|-----------------------------------------|
A|---------5---5-5--5-5--------------------|
E|-7-x-7-7--------------3-x-3-3-0---0-0-2-2| x3

G|-----------------------------------------|
D|-----------------------------------------|
A|---------5---5-5--5-5--------------------|
E|-7-x-7-7--------------3-3~~---0~~~-2~~~-5|

G|-----------------------------------------|
D|-----------------------------------------|
A|---------5---5-5--5-5--------------------|
E|-7-x-7-7--------------3-x-3-3-0---0-0-2-2| x4

Outro (4:30)
G|-----------------------------------------|
D|-----------------------------------------|
A|-2--2---2---2--2-2--2---2---2---2--2-2--2|
E|-----------------------------------------|

G|----------------------------------------------------------------------------------|
D|----------------------------------------------------------------------------------|
A|-2-2----2-2--2---2---2-2---2-2----2--2----2-2----2-2--2---2---2-2---2-2----2--2---|
E|-------------------2--------------------2-------------------2--------------------2| x3

End (5:05)
G|-----|
D|-----|
A|-----|
E|--2~~|

Tablature Notation

/ - slide up
\ - slide down
h - hammer-on
p - pull-off
~ - vibrato
+ - harmonic
x - Mute note


Thats it!  It's got a great groove to it, and I was surprised not to find it 
available anywhere, so I did my best!  Enjoy and please, rate it!
Suggest correction
Give kudos to tab author, rate the tab!
1 2 3 4 5
comments
print report bad tab
guest
You may want to rate the tab now too:
select rating
Wanna post a correction for this tab? Suggest correction