Oops, an error
Loading. Please wait.

Back To You Bass Tab

version 1
version 1

Whole song

Interactive

1,931 views 6 this week
no commentswrite comment
1 2 3 4 5
1 last vote to show rating
add to favorites
launch autoscroll
font size
0
reset
guitar tuner
Autoscroll
slow
fast
+/-
esc
set tempo
stop
Help us to improve Ultimate-Guitar.com Take our survey!
×
Author
Difficulty
novice
        Back To You by John Mayer
        Tabbed by Ayie Visitacion

Standard Tuning

  Intro and Verse
G|---------------------------------------------------------|
D|---------------------------------------------------------|-
A|-0000-00-00-000000-00-00-00------------------------------| |
E|---------------------------2222-22-22-222222-22-22-22----| |
                                                              > 2x
G|---------------------------------------------------------| |
D|---------------------------------------------------------| |
A|-2222-22-22-22-------------------------------------------|-
E|--------------0000-00-00-002222-22-22-222222-22-22-22----|
 
G|---------------------------------------------------------------|
D|----------------------------------------------0---2---2-2--2-2-|
A|-------------5-5\-----------5-5\------------4---2----2-2--2-2--|
E|-0-0-0-0--02-----0-0-0-0-02-----0-0-0-0--02--------------------|

Repeat Intro and Verse 

G|---------------------------------------|
D|-2-2--2-2--2-2--3---3--3---5---5--5----|
A|--2--2-2--2-2-----3---3-3----5---5-5---|
E|---------------------------------------|

G|---------------------------77--7------------7----|
D|-6--7-----7/9-7--6--7-----7---7-7-6--7-----7-----|
A|---7--7\5------7---7--7\5-----------7--7\5-------|
E|-------------------------------------------------|

G|-4--4---4---4---4---4---4---4---6---6---6---6---6---6---6---6------|
D|--44--44--44--44--44--44--44--44--66--66--66--66--66--66--66--66---|
A|-------------------------------------------------------------------|
E|-------------------------------------------------------------------|

G|-5--5---5---5---7---7---7---9999-----|
D|--55--55--55--55--77--77--77---------|
A|-------------------------------------|
E|-------------------------------------|
 
  Instrumental(updated)
G|-----------------------------------------------------------|
D|-----------------------------------44--4--66677744444444---|
A|---------5/1212-12121212-121212\--4---4-4---------------44-|
E|-5555-555-----------------------2--------------------------|

G|-----------------------------------------------------4-----|
D|-----------------2-----2-----2-3-4---4----4---4---4--------|
A|-2-----2-----2-----2-2---2-2-------4---4----4---4---4--0---|
E|---2-2---2-2---2-------------------------------------------|

  or you can also do this in the instrumental part
G|---------------------------------------------------------|
D|---------------------------------------------------------|
A|-0000-00-00-000000-00-00-00------------------------------|
E|---------------------------2222-22-22-222222-22-22-22----|
                                                          
G|---------------------------------------------------------|
D|---------------------------------------------------------|
A|-2222-22-22-22---------------------------------------0---|
E|--------------0000-00-00-002222-22-22-222222-22-22-22----|


 Outro
G|-----------------------------------|
D|-----------------------------------|
A|-----------------------------------|2x till fade
E|-22-22-22-22-2222-22-22-22 22-2222-|

Enjoy!

| /  slide up
| \  slide down
| h  hammer-on
| p  pull-off
| ~  vibrato
| +  harmonic
| x  Mute note
Suggest correction
Give kudos to tab author, rate the tab!
1 2 3 4 5
comments
print report bad tab
guest
You may want to rate the tab now too:
select rating
Wanna post a correction for this tab? Suggest correction