Oops, an error
Loading. Please wait.

Back To You Tab

version 1
version 1

Intro

Whole song

Interactive

8,980 views 3 this week
3 commentsread comments
1 2 3 4 5
x 5
add to favorites
launch autoscroll
font size
0
reset
how to read this tab
guitar tuner
Autoscroll
slow
fast
+/-
esc
set tempo
stop
Help us to improve Ultimate-Guitar.com Take our survey!
×
Artist: John Mayer
Song: Back to You (This is JUST THE INTRO!)
Album: Room for Squares
Tabbed by: Gabe Goodman

THIS IS JUST THE INTRO, obviously! I think it plays for a little bit
of the actual song too. Here goes!


e----------------------------------------------------------------
A----------------------------------------------------------------
D--7------7------------------------------------------------------
G---6------6-------6---------------------------------------------
B----5-5----5-5---5----------------------------------------------
E-----5-7----5-7-5-----------------------------------------------

Basically you can just play an A chord on starting on Fret #5 and
use that form for it. That's what I do.

If it's wrong don't hurt me!
Suggest correction
comments
print report bad tab
3 comments total.
0 reply
DrewMeyer 771 Nov 13, 2011 01:40 PM

I see what you are getting at, but you tabbed it wrong, It should be


e-----5-7----5-7-5------------------------------------------
b----5-5----5-5---5-----------------------------------------
g---6------6-------6----------------------------------------
D--7------7-------------------------------------------------
A-----------------------------------------------------------
E-----------------------------------------------------------

So you just reversed the tab, which isn't how it is written.

0 reply
Budep 105 Aug 23, 2012 04:23 PM

You dont have ear? :D

0 reply
KaboomGuitarist 10 Apr 16, 2013 03:17 PM

This is just the wrong way round, it seems vaguely write otherwise.

guest
You may want to rate the tab now too:
select rating
Wanna post a correction for this tab? Suggest correction