Oops, an error
Loading. Please wait.

Back To You Tab

version 1
version 1

Solo

Whole song

Interactive

29,865 views 9 this week
2 commentsread comments
1 2 3 4 5
excellent!
x 6
add to favorites
launch autoscroll
font size
0
reset
how to read this tab
guitar tuner
Autoscroll
slow
fast
+/-
esc
set tempo
stop
Help us to improve Ultimate-Guitar.com Take our survey!
×
This is just the solo and a riff for the John Mayer song Back To You.

~ = let ring
h = hammer on note
p = pull off note
^ = bend up note
r = release bent note

Add some reverb and it sounds pretty cool.
e----------------------------------------|
B---12/14~---12/14\12---14p12--12--------|
G---------------------------------14~----|
D----------------------------------------|
A----------------------------------------|
E----------------------------------------|


e-----------------------------------------------------------------|
B-----------12/14----14\9~----14\9--------14\7-------14^15r14~----|
G---14--11---------------------------11---------9-----------------|
D-----------------------------------------------------------------|
A-----------------------------------------------------------------|
E-----------------------------------------------------------------|

Played over these chords...
e---------------------------------|
B---10---9---------10---9---------|
G----9---9----------9---9---------|
D----7---7---(x2)---7---7---(x2)--|
A----0---0----------9---9---------|
E---------------------------------|

Following riff...

e-------------------------------------|
B---7h9-----------7h9---------12------|
G--------9--11----------9--11---------|    ....Fade out
D-------------------------------------|
A-------------------------------------|
E-------------------------------------|

That's it, the rest of the song is tabbed out pretty well on the site so check that out. 
e-mail me... chiefwiggum05@aol.com
-cheers.
Suggest correction
comments
print report bad tab
2 comments total.
0 reply
NoShiningArmor 10 wrote on July 24 2009, 04:27 am

I like it, john mayer also uses a pretty substantial amount of delay/echo in addition to the reverb, sounds pretty neat.

0 reply
r1gz 10 wrote on April 18 2013, 08:06 am

Try this fade out...I found it easier

e---------------------------7~~-------|
B---7h9-----7~~---7h9-----------------|
G--------9-------------9--------------| ....Fade out
D-------------------------------------|
A-------------------------------------|
E-------------------------------------|

guest
You may want to rate the tab now too:
select rating
Please do not post tabs as comments. Select "correction" instead!