Oops, an error
Loading. Please wait.

Badge And Gun Tab

5,504 views 24 this week
no commentswrite comment
1 2 3 4 5
excellent!
x 6
add to favorites
launch autoscroll
font size
0
reset
how to read this tab
guitar tuner
Tab Pro tools
  • play this tab
  • loop segment
  • change instrument
  • show fretboard
  • metronome
×
Best way to learn
"Badge And Gun"
Autoscroll
slow
fast
+/-
esc
set tempo
stop
Contributor
Difficulty
intermediate
John Mayer
Badge and Gun
Paradise Valley

Tuning: Standard

I know this tab isn't completely finished/perfected, but it is much better and more 
accurate than the chords present previously. Any corrections email me at 
a0kalittlema0n@gmail.com (or comment). I'll do my best to get it completely done.

I have put *'s where I know it isn't completely right.

Intro:
|--------------------------|
|-----------12---------12--|
|------0----------0--------|
|--------12---------12-----| x4
|---10---------------------|
|--------------12----------|

Verse:
|--------------------------|
|-----------12---------12--|
|------0----------0--------|
|--------12---------12-----| x2
|---10---------------------|
|--------------12----------|

|--------------------|
|--------5--------5--|
|----0--------0------|
|------5--------5----|
|--3-----------------|
|-----------3--------|

|--------------------------|
|-----------12---------12--|
|------0----------0--------|
|--------12---------12-----| x3
|---10---------------------|
|--------------12----------|

|--------------------|
|--------7--------7--|
|----0--------0------|
|------7--------7----| x2
|--5-----------------|
|-----------5--------|

|--------------------------|
|-----------12---------12--|
|------0----------0--------|
|--------12---------12-----| x2
|---10---------------------|
|--------------12----------|

|--------------------|
|--------5--------5--|
|----0--------0------|
|------5--------5----|
|--3-----------------|
|-----------0--------|

|--------------------|
|--------2--------2--|
|----0--------0------|
|------2--------2----|
|--0--------0--------|
|--------------------|

|-------------------------------------|
|----------12---------------12-10-----|
|-----0----------------0----------12--|
|-------12---------------12-----------|
|--10---------10----------------------|
|----------------12-10----------------|

|--------------------------|
|-----------12---------12--|
|------0----------0--------|
|--------12---------12-----| x2
|---10---------------------|
|--------------12----------|

Bridge:
|--------------------------------------|
|--------5--------5--------5/7-----7---|
|----0--------0--------0-------0-------|
|------5--------5--------5-------7-----|
|--3--------3--------3-----------------|
|--------------------------------------|

|--------------------------------------|
|--------8--------8--------8--------8--|
|----0--------0--------0--------0------|
|------9--------9--------9--------9----|
|--7--------7--------7--------7--------|
|--------------------------------------|

|--------------------------------------|
|--------5--------5--------5--------5--|
|----0--------0--------0--------0------|
|------5--------5--------5--------5----|
|--3--------3--------3--------3--------|
|--------------------------------------|

|---------------------------|
|--7------8------10---------|
|----0------0-------11------|
|------7------9--------12*--| *you can use a harmonic, it sounds better
|--5------7-----------------|
|----------------10---------|

Verse 2:
|--------------------------|
|-----------12---------12--|
|------0----------0--------|
|--------12---------12-----| x2
|---10---------------------|
|--------------12----------|

|--------------------|
|--------5--------5--|
|----0--------0------|
|------5--------5----|
|--3-----------------|
|-----------3--------|

|--------------------------|
|-----------12---------12--|
|------0----------0--------|
|--------12---------12-----| x3
|---10---------------------|
|--------------12----------|

|--------------------|
|--------7--------7--|
|----0--------0------|
|------7--------7----| x2
|--5-----------------|
|-----------5--------|

|--------------------------|
|-----------12---------12--|
|------0----------0--------|
|--------12---------12-----| x2
|---10---------------------|
|--------------12----------|

|--------------------|
|--------5--------5--|
|----0--------0------|
|------5--------5----|
|--3-----------------|
|-----------0--------|

|--------------------|
|--------2--------2--|
|----0--------0------|
|------2--------2----|
|--0--------0--------|
|--------------------|

|-------------------------------------|
|----------12---------------12-10-----|
|-----0----------------0----------12--|
|-------12---------------12-----------|
|--10---------10----------------------|
|----------------12-10----------------|

|--------------------------|
|-----------12---------12--|*******
|------0----------0--------|
|--------12---------12-----| x2
|---10---------------------|
|--------------12----------|

Bridge 2:
|--------------------------------------|
|--------5--------5--------5/7-----7---|
|----0--------0--------0-------0-------|
|------5--------5--------5-------7-----|
|--3--------3--------3-----------------|
|--------------------------------------|

|--------------------------------------|
|--------8--------8--------8--------8--|
|----0--------0--------0--------0------|
|------9--------9--------9--------9----|
|--7--------7--------7--------7--------|
|--------------------------------------|

|--------------------------------------|
|--------5--------5--------5--------5--|
|----0--------0--------0--------0------|
|------5--------5--------5--------5----|
|--3--------3--------3--------3--------|
|--------------------------------------|

|---------------------------|
|--7------8------10---------|
|----0------0-------11------|
|------7------9--------12*--| *you can use a harmonic, it sounds better
|--5------7-----------------|
|----------------10---------|

vERSE 3: Whistling/humming the melody
Verse 2:
|--------------------------|
|-----------12---------12--|
|------0----------0--------|
|--------12---------12-----| x2
|---10---------------------|
|--------------12----------|

|--------------------|
|--------5--------5--|
|----0--------0------|
|------5--------5----|
|--3-----------------|
|-----------3--------|

|--------------------------|
|-----------12---------12--|
|------0----------0--------|
|--------12---------12-----| x3
|---10---------------------|
|--------------12----------|

|--------------------|
|--------7--------7--|
|----0--------0------|
|------7--------7----| x2
|--5-----------------|
|-----------5--------|

|--------------------------|
|-----------12---------12--|
|------0----------0--------|
|--------12---------12-----| x2
|---10---------------------|
|--------------12----------|

|--------------------|
|--------5--------5--|
|----0--------0------|
|------5--------5----|
|--3-----------------|
|-----------0--------|

|--------------------|
|--------2--------2--|
|----0--------0------|
|------2--------2----|
|--0--------0--------|
|--------------------|

|--------------------------|
|-----------12---------12--|
|------0----------0--------|
|--------12---------12-----| x2
|---10---------------------|
|--------------12----------|

|--------------------|
|--------5--------5--|
|----0--------0------|
|------5--------5----|
|--3-----------------|
|-----------0--------|

|--------------------------|
|-----------12---------12--|
|------0----------0--------|
|--------12---------12-----| x2
|---10---------------------|
|--------------12----------|

Bridge 3:
|--------------------------------------|
|--------5--------5--------5/7-----7---|
|----0--------0--------0-------0-------|
|------5--------5--------5-------7-----|
|--3--------3--------3-----------------|
|--------------------------------------|

|--------------------------------------|
|--------8--------8--------8--------8--|
|----0--------0--------0--------0------|
|------9--------9--------9--------9----|
|--7--------7--------7--------7--------|
|--------------------------------------|

|--------------------------------------|
|--------5--------5--------5--------5--|
|----0--------0--------0--------0------|
|------5--------5--------5--------5----|
|--3--------3--------3--------3--------|
|--------------------------------------|

|---------------------------|****
|--7------8------10---------|
|----0------0-------11------|
|------7------9--------12*--| *you can use a harmonic, it sounds better
|--5------7-----------------|
|----------------10---------|

Verse 4:
|--------------------------|
|-----------12---------12--|
|------0----------0--------|
|--------12---------12-----| x8
|---10---------------------|
|--------------12----------|

|--------------------|
|--------5--------5--|
|----0--------0------|
|------5--------5----|
|--3-----------------|
|-----------3--------|

|--------------------------|
|-----------12---------12--|
|------0----------0--------|
|--------12---------12-----| x6
|---10---------------------|
|--------------12----------|

|--------------------|
|--------7--------7--|
|----0--------0------|
|------7--------7----| x2
|--5-----------------|
|-----------5--------|

|--------------------------|
|-----------12---------12--|
|------0----------0--------|
|--------12---------12-----| x2
|---10---------------------|
|--------------12----------|

|--------------------|
|--------5--------5--|
|----0--------0------|
|------5--------5----|x2
|--3-----------------|
|-----------0--------|

|--------------------|
|--------2--------2--|
|----0--------0------|
|------2--------2----|
|--0--------0--------|
|--------------------|

|-----------------------------------------|****
|----------12---------12-------7-------7--|
|-----0----------0---------0-------0------|
|-------12---------12--------7-------7----| x3
|--10--------------------5----------------|
|-------------10-----------------5--------|

|--7-5-3-----------3--|****
|--------3-5-3-3-1-3--|
|--4-2-0-----------0--|
|--------0-2-0-0---0--| x2
|----------------3-2--|
|------------------3--|
comments
print report bad tab
I want to post or [tab]
guest
You may want to rate the tab now too:
select rating
Please do not post tabs as comments. Select "correction" instead!