Oops, an error
Loading. Please wait.

Belief Tab

version 1
version 1

Solo

Whole song

Interactive

57,996 views 21 this week
2 commentsread comments
1 2 3 4 5
x 4
add to favorites
launch autoscroll
font size
0
reset
how to read this tab
guitar tuner
Autoscroll
slow
fast
+/-
esc
set tempo
stop
Help us to improve Ultimate-Guitar.com Take our survey!
×
Author
This is rough, but is a good starting point for this solo.  Mayer has very quick fingers 
likes to add in small licks and so this solo changes slightly every time he plays it.  
is based off the studio version.

Song: Belief
Album: Continuum
Artist: John Mayer
Tabbed by: Baskie

	Key: h = hammer on    p = pull off
	     / or \ = slide
	     b = bend

Solo

e|-------------------------------------------------------------------------|
B|----14/15--------------------------13------------------------------------|
G|----------10/12-10/12-10------12-12--12-12-10----------------------------|
D|----------------------------------------------12-10--------------------10|
A|-----------------------------------------------------10--10--8-10-10h12--|
E|-------------------------------------------------------------------------|


e|-------------------------------------------------------------------------|
B|------------------------------------------------------------13-13-13-----|
G|10----------------------------------------------------------14-14-14-----|
D|--12-10----10/12-10/12-10/12---------------------------------------------|
A|-----------------------------12p10----8/10-8/10-8/10---------------------|
E|----------------------------------10-------------------------------------|


e|-------------------------------------------------------------------------|
B|---------------------------10-13-15-18-15\13/15-15-----------------------|
G|-------10-12-12-12p10--10------------------------------------------------|
D|-10-12---------------12--------------------------------------------------|
A|-------------------------------------------------------------------------|
E|-------------------------------------------------------------------------|

This is my first so let me know how I did please.
Have fun with it.
Suggest correction
comments
print report bad tab
2 comments total.
0 reply
gibsonsg23 10 Jul 15, 2009 09:59 AM

its alright. u missed some stuff tho

0 reply
Paul1324 10 Jul 30, 2009 07:16 PM

its pretty close but ur missing two or three notes keep it up

guest
You may want to rate the tab now too:
select rating
Wanna post a correction for this tab? Suggest correction